ISO-10303-21;
HEADER;
FILE_DESCRIPTION (( 'STEP AP203' ),
    '1' );
FILE_NAME ('CV03-A12_REV_.step',
    '2025-08-17T05:13:28',
    ( '' ),
    ( '' ),
    'SwSTEP 2.0',
    'SolidWorks 2024',
    '' );
FILE_SCHEMA (( 'CONFIG_CONTROL_DESIGN' ));
ENDSEC;

DATA;
#1 = APPROVAL_DATE_TIME ( #36, #128 ) ;
#2 = SHAPE_REPRESENTATION ( 'CV03-A12_REV_', ( #174, #159 ), #38 ) ;
#3 = ADVANCED_FACE ( 'NONE', ( #160 ), #187, .T. ) ;
#4 = ORIENTED_EDGE ( 'NONE', *, *, #284, .F. ) ;
#5 = CC_DESIGN_APPROVAL ( #163, ( #86 ) ) ;
#6 =( LENGTH_UNIT ( ) NAMED_UNIT ( * ) SI_UNIT ( .MILLI., .METRE. ) );
#7 = ORIENTED_EDGE ( 'NONE', *, *, #255, .T. ) ;
#8 = PERSON_AND_ORGANIZATION_ROLE ( 'creator' ) ;
#9 = ORIENTED_EDGE ( 'NONE', *, *, #212, .T. ) ;
#10 = APPROVAL_ROLE ( '' ) ;
#11 = VERTEX_POINT ( 'NONE', #135 ) ;
#12 = CC_DESIGN_PERSON_AND_ORGANIZATION_ASSIGNMENT ( #186, #44, ( #236 ) ) ;
#13 = CC_DESIGN_APPROVAL ( #360, ( #236 ) ) ;
#14 = APPROVAL_STATUS ( 'not_yet_approved' ) ;
#15 = APPLICATION_CONTEXT ( 'configuration controlled 3d designs of mechanical parts and assemblies' ) ;
#16 = PERSON_AND_ORGANIZATION ( #40, #254 ) ;
#17 = MANIFOLD_SOLID_BREP ( 'Boss-Extrude1', #196 ) ;
#18 = FACE_OUTER_BOUND ( 'NONE', #206, .T. ) ;
#19 = CC_DESIGN_PERSON_AND_ORGANIZATION_ASSIGNMENT ( #28, #359, ( #179 ) ) ;
#20 = APPROVAL_DATE_TIME ( #102, #218 ) ;
#21 = CARTESIAN_POINT ( 'NONE',  ( -1200.000000000000227, 6.000000000000000000, 0.000000000000000000 ) ) ;
#22 = LOCAL_TIME ( 15, 13, 28.00000000000000000, #315 ) ;
#23 = DIRECTION ( 'NONE',  ( -0.000000000000000000, 1.000000000000000000, -0.000000000000000000 ) ) ;
#24 = UNCERTAINTY_MEASURE_WITH_UNIT (LENGTH_MEASURE( 1.000000000000000082E-05 ), #224, 'distance_accuracy_value', 'NONE');
#25 = EDGE_LOOP ( 'NONE', ( #341, #240, #244, #4 ) ) ;
#26 = VECTOR ( 'NONE', #333, 1000.000000000000000 ) ;
#27 = EDGE_CURVE ( 'NONE', #235, #283, #296, .T. ) ;
#28 = PERSON_AND_ORGANIZATION ( #234, #53 ) ;
#29 = CALENDAR_DATE ( 2025, 17, 8 ) ;
#30 = LOCAL_TIME ( 15, 13, 28.00000000000000000, #310 ) ;
#31 = CC_DESIGN_SECURITY_CLASSIFICATION ( #179, ( #361 ) ) ;
#32 = APPROVAL_STATUS ( 'not_yet_approved' ) ;
#33 = CC_DESIGN_PERSON_AND_ORGANIZATION_ASSIGNMENT ( #132, #320, ( #220 ) ) ;
#34 = AXIS2_PLACEMENT_3D ( 'NONE', #219, #264, #164 ) ;
#35 = APPLICATION_PROTOCOL_DEFINITION ( 'international standard', 'config_control_design', 1994, #111 ) ;
#36 = DATE_AND_TIME ( #177, #337 ) ;
#37 = ORIENTED_EDGE ( 'NONE', *, *, #27, .T. ) ;
#38 =( GEOMETRIC_REPRESENTATION_CONTEXT ( 3 ) GLOBAL_UNCERTAINTY_ASSIGNED_CONTEXT ( ( #45 ) ) GLOBAL_UNIT_ASSIGNED_CONTEXT ( ( #6, #64, #280 ) ) REPRESENTATION_CONTEXT ( 'NONE', 'WORKASPACE' ) );
#39 = APPLICATION_PROTOCOL_DEFINITION ( 'international standard', 'config_control_design', 1994, #15 ) ;
#40 = PERSON ( 'UNSPECIFIED', 'UNSPECIFIED', 'UNSPECIFIED', ('UNSPECIFIED'), ('UNSPECIFIED'), ('UNSPECIFIED') ) ;
#41 = DATE_AND_TIME ( #345, #193 ) ;
#42 = CARTESIAN_POINT ( 'NONE',  ( 1199.999999999999773, -6.000000000000000000, 604.9999999999997726 ) ) ;
#43 = AXIS2_PLACEMENT_3D ( 'NONE', #303, #87, #198 ) ;
#44 = PERSON_AND_ORGANIZATION_ROLE ( 'creator' ) ;
#45 = UNCERTAINTY_MEASURE_WITH_UNIT (LENGTH_MEASURE( 1.000000000000000082E-05 ), #6, 'distance_accuracy_value', 'NONE');
#46 = LINE ( 'NONE', #162, #83 ) ;
#47 = EDGE_CURVE ( 'NONE', #239, #309, #223, .T. ) ;
#48 = APPROVAL_ROLE ( '' ) ;
#49 = COORDINATED_UNIVERSAL_TIME_OFFSET ( 10, 0, .AHEAD. ) ;
#50 = CARTESIAN_POINT ( 'NONE',  ( 1199.999999999999773, -6.000000000000000000, 604.9999999999997726 ) ) ;
#51 = DIRECTION ( 'NONE',  ( -1.000000000000000000, 0.000000000000000000, 1.387778780781445429E-16 ) ) ;
#52 = EDGE_CURVE ( 'NONE', #239, #189, #46, .T. ) ;
#53 = ORGANIZATION ( 'NAUO-ORG1', 'UNSPECIFIED', 'UNSPECIFIED' ) ;
#54 = CONTEXT_DEPENDENT_SHAPE_REPRESENTATION ( #286, #71 ) ;
#55 = DIRECTION ( 'NONE',  ( -0.000000000000000000, 1.000000000000000000, -0.000000000000000000 ) ) ;
#56 = CARTESIAN_POINT ( 'NONE',  ( 0.000000000000000000, 0.000000000000000000, 0.000000000000000000 ) ) ;
#57 = CC_DESIGN_PERSON_AND_ORGANIZATION_ASSIGNMENT ( #342, #287, ( #86 ) ) ;
#58 = AXIS2_PLACEMENT_3D ( 'NONE', #56, #173, #356 ) ;
#59 = ORIENTED_EDGE ( 'NONE', *, *, #242, .F. ) ;
#60 = COORDINATED_UNIVERSAL_TIME_OFFSET ( 10, 0, .AHEAD. ) ;
#61 = SECURITY_CLASSIFICATION_LEVEL ( 'unclassified' ) ;
#62 = AXIS2_PLACEMENT_3D ( 'NONE', #307, #207, #90 ) ;
#63 = CC_DESIGN_DATE_AND_TIME_ASSIGNMENT ( #211, #181, ( #86 ) ) ;
#64 =( NAMED_UNIT ( * ) PLANE_ANGLE_UNIT ( ) SI_UNIT ( $, .RADIAN. ) );
#65 = ORIENTED_EDGE ( 'NONE', *, *, #242, .T. ) ;
#66 = VECTOR ( 'NONE', #252, 1000.000000000000000 ) ;
#67 = DATE_AND_TIME ( #291, #253 ) ;
#68 = FACE_OUTER_BOUND ( 'NONE', #141, .T. ) ;
#69 = APPROVAL_DATE_TIME ( #217, #360 ) ;
#70 = CARTESIAN_POINT ( 'NONE',  ( 1199.999999999999773, -6.000000000000000000, -605.0000000000002274 ) ) ;
#71 = PRODUCT_DEFINITION_SHAPE ( 'NONE', 'NONE',  #361 ) ;
#72 = LOCAL_TIME ( 15, 13, 28.00000000000000000, #145 ) ;
#73 = DATE_TIME_ROLE ( 'classification_date' ) ;
#74 = EDGE_LOOP ( 'NONE', ( #98, #152, #120, #96 ) ) ;
#75 = CALENDAR_DATE ( 2025, 17, 8 ) ;
#76 = DIRECTION ( 'NONE',  ( 1.000000000000000000, -0.000000000000000000, -1.387778780781445676E-16 ) ) ;
#77 = APPROVAL_DATE_TIME ( #41, #172 ) ;
#78 = DIRECTION ( 'NONE',  ( 0.000000000000000000, 0.000000000000000000, -1.000000000000000000 ) ) ;
#79 = PRODUCT ( 'CV03-A12_REV_', 'CV03-A12_REV_', '', ( #149 ) ) ;
#80 = CC_DESIGN_DATE_AND_TIME_ASSIGNMENT ( #282, #122, ( #138 ) ) ;
#81 = LOCAL_TIME ( 15, 13, 28.00000000000000000, #300 ) ;
#82 = DATE_TIME_ROLE ( 'classification_date' ) ;
#83 = VECTOR ( 'NONE', #216, 1000.000000000000000 ) ;
#84 = LINE ( 'NONE', #110, #285 ) ;
#85 = APPROVAL ( #14, 'UNKNOWN' ) ;
#86 = SECURITY_CLASSIFICATION ( '', '', #61 ) ;
#87 = DIRECTION ( 'NONE',  ( 0.000000000000000000, -1.000000000000000000, 0.000000000000000000 ) ) ;
#88 = DIRECTION ( 'NONE',  ( 0.000000000000000000, -0.000000000000000000, -1.000000000000000000 ) ) ;
#89 = VECTOR ( 'NONE', #23, 1000.000000000000000 ) ;
#90 = DIRECTION ( 'NONE',  ( 1.000000000000000000, 0.000000000000000000, 0.000000000000000000 ) ) ;
#91 = LOCAL_TIME ( 15, 13, 28.00000000000000000, #354 ) ;
#92 = ORIENTED_EDGE ( 'NONE', *, *, #357, .F. ) ;
#93 = CALENDAR_DATE ( 2025, 17, 8 ) ;
#94 = ORIENTED_EDGE ( 'NONE', *, *, #47, .F. ) ;
#95 = CALENDAR_DATE ( 2025, 17, 8 ) ;
#96 = ORIENTED_EDGE ( 'NONE', *, *, #357, .T. ) ;
#97 = APPROVAL_PERSON_ORGANIZATION ( #351, #360, #298 ) ;
#98 = ORIENTED_EDGE ( 'NONE', *, *, #147, .T. ) ;
#99 = ADVANCED_FACE ( 'NONE', ( #18 ), #266, .T. ) ;
#100 = DATE_AND_TIME ( #105, #327 ) ;
#101 = LINE ( 'NONE', #316, #89 ) ;
#102 = DATE_AND_TIME ( #188, #91 ) ;
#103 = PERSON_AND_ORGANIZATION_ROLE ( 'creator' ) ;
#104 = DIRECTION ( 'NONE',  ( -1.000000000000000000, 0.000000000000000000, 9.251858538542970348E-17 ) ) ;
#105 = CALENDAR_DATE ( 2025, 17, 8 ) ;
#106 = DIRECTION ( 'NONE',  ( -0.000000000000000000, 1.000000000000000000, -0.000000000000000000 ) ) ;
#107 = CC_DESIGN_DATE_AND_TIME_ASSIGNMENT ( #112, #82, ( #179 ) ) ;
#108 = CARTESIAN_POINT ( 'NONE',  ( -1200.000000000000227, -6.000000000000000000, 605.0000000000000000 ) ) ;
#109 = CC_DESIGN_SECURITY_CLASSIFICATION ( #86, ( #203 ) ) ;
#110 = CARTESIAN_POINT ( 'NONE',  ( -1200.000000000000227, -6.000000000000000000, 605.0000000000001137 ) ) ;
#111 = APPLICATION_CONTEXT ( 'configuration controlled 3d designs of mechanical parts and assemblies' ) ;
#112 = DATE_AND_TIME ( #29, #81 ) ;
#113 = CARTESIAN_POINT ( 'NONE',  ( -1200.000000000000227, 6.000000000000000000, 605.0000000000001137 ) ) ;
#114 = LINE ( 'NONE', #116, #26 ) ;
#115 =( GEOMETRIC_REPRESENTATION_CONTEXT ( 3 ) GLOBAL_UNCERTAINTY_ASSIGNED_CONTEXT ( ( #24 ) ) GLOBAL_UNIT_ASSIGNED_CONTEXT ( ( #224, #275, #276 ) ) REPRESENTATION_CONTEXT ( 'NONE', 'WORKASPACE' ) );
#116 = CARTESIAN_POINT ( 'NONE',  ( -5.597374415818497137E-14, 6.000000000000000000, -605.0000000000001137 ) ) ;
#117 = APPLICATION_CONTEXT ( 'configuration controlled 3d designs of mechanical parts and assemblies' ) ;
#118 = DIRECTION ( 'NONE',  ( 0.000000000000000000, 0.000000000000000000, 1.000000000000000000 ) ) ;
#119 = APPROVAL_STATUS ( 'not_yet_approved' ) ;
#120 = ORIENTED_EDGE ( 'NONE', *, *, #322, .T. ) ;
#121 = COORDINATED_UNIVERSAL_TIME_OFFSET ( 10, 0, .AHEAD. ) ;
#122 = DATE_TIME_ROLE ( 'creation_date' ) ;
#123 = COORDINATED_UNIVERSAL_TIME_OFFSET ( 10, 0, .AHEAD. ) ;
#124 = ORIENTED_EDGE ( 'NONE', *, *, #47, .T. ) ;
#125 = APPROVAL_STATUS ( 'not_yet_approved' ) ;
#126 = ORIENTED_EDGE ( 'NONE', *, *, #212, .F. ) ;
#127 = APPROVAL_PERSON_ORGANIZATION ( #148, #163, #288 ) ;
#128 = APPROVAL ( #308, 'UNSPECIFIED' ) ;
#129 = APPLICATION_PROTOCOL_DEFINITION ( 'international standard', 'config_control_design', 1994, #117 ) ;
#130 = FACE_OUTER_BOUND ( 'NONE', #258, .T. ) ;
#131 = AXIS2_PLACEMENT_3D ( 'NONE', #192, #268, #246 ) ;
#132 = PERSON_AND_ORGANIZATION ( #40, #254 ) ;
#133 = LINE ( 'NONE', #21, #334 ) ;
#134 = PERSON_AND_ORGANIZATION_ROLE ( 'design_owner' ) ;
#135 = CARTESIAN_POINT ( 'NONE',  ( 1199.999999999999773, -6.000000000000000000, 604.9999999999997726 ) ) ;
#136 = APPROVAL_PERSON_ORGANIZATION ( #338, #328, #151 ) ;
#137 = PERSON_AND_ORGANIZATION ( #40, #254 ) ;
#138 = PRODUCT_DEFINITION ( 'UNKNOWN', '', #203, #281 ) ;
#139 = CARTESIAN_POINT ( 'NONE',  ( 1199.999999999999773, 6.000000000000000000, 604.9999999999997726 ) ) ;
#140 = AXIS2_PLACEMENT_3D ( 'NONE', #353, #221, #104 ) ;
#141 = EDGE_LOOP ( 'NONE', ( #290, #94, #319, #7 ) ) ;
#142 = FACE_OUTER_BOUND ( 'NONE', #343, .T. ) ;
#143 = PRODUCT_RELATED_PRODUCT_CATEGORY ( 'detail', '', ( #297 ) ) ;
#144 = CC_DESIGN_SECURITY_CLASSIFICATION ( #220, ( #302 ) ) ;
#145 = COORDINATED_UNIVERSAL_TIME_OFFSET ( 10, 0, .AHEAD. ) ;
#146 = CARTESIAN_POINT ( 'NONE',  ( 0.000000000000000000, 6.000000000000000000, 0.000000000000000000 ) ) ;
#147 = EDGE_CURVE ( 'NONE', #283, #185, #133, .T. ) ;
#148 = PERSON_AND_ORGANIZATION ( #40, #254 ) ;
#149 = MECHANICAL_CONTEXT ( 'NONE', #111, 'mechanical' ) ;
#150 = CC_DESIGN_PERSON_AND_ORGANIZATION_ASSIGNMENT ( #16, #245, ( #302 ) ) ;
#151 = APPROVAL_ROLE ( '' ) ;
#152 = ORIENTED_EDGE ( 'NONE', *, *, #255, .F. ) ;
#153 = APPROVAL_ROLE ( '' ) ;
#154 = SECURITY_CLASSIFICATION_LEVEL ( 'unclassified' ) ;
#155 = ORIENTED_EDGE ( 'NONE', *, *, #52, .F. ) ;
#156 = ITEM_DEFINED_TRANSFORMATION ( 'NONE', 'NONE', #159,  #58 ) ;
#157 = PRODUCT_DEFINITION_SHAPE ( 'NONE', 'NONE',  #236 ) ;
#158 = DIRECTION ( 'NONE',  ( 1.000000000000000000, 0.000000000000000000, -1.387778780781445429E-16 ) ) ;
#159 = AXIS2_PLACEMENT_3D ( 'NONE', #146, #231, #340 ) ;
#160 = FACE_OUTER_BOUND ( 'NONE', #74, .T. ) ;
#161 = DATE_TIME_ROLE ( 'creation_date' ) ;
#162 = CARTESIAN_POINT ( 'NONE',  ( 1199.999999999999773, -6.000000000000000000, -605.0000000000002274 ) ) ;
#163 = APPROVAL ( #119, 'UNSPECIFIED' ) ;
#164 = DIRECTION ( 'NONE',  ( -0.000000000000000000, 0.000000000000000000, 1.000000000000000000 ) ) ;
#165 = LOCAL_TIME ( 15, 13, 28.00000000000000000, #121 ) ;
#166 = DIRECTION ( 'NONE',  ( 0.000000000000000000, 0.000000000000000000, -1.000000000000000000 ) ) ;
#167 = CC_DESIGN_DATE_AND_TIME_ASSIGNMENT ( #67, #161, ( #236 ) ) ;
#168 = DATE_AND_TIME ( #197, #72 ) ;
#169 = PLANE ( 'NONE',  #352 ) ;
#170 = CC_DESIGN_APPROVAL ( #128, ( #203 ) ) ;
#171 = DIRECTION ( 'NONE',  ( -0.000000000000000000, 1.000000000000000000, -0.000000000000000000 ) ) ;
#172 = APPROVAL ( #295, 'UNSPECIFIED' ) ;
#173 = DIRECTION ( 'NONE',  ( 0.000000000000000000, 0.000000000000000000, 1.000000000000000000 ) ) ;
#174 = AXIS2_PLACEMENT_3D ( 'NONE', #329, #118, #204 ) ;
#175 = PERSON_AND_ORGANIZATION ( #40, #254 ) ;
#176 = ADVANCED_FACE ( 'NONE', ( #68 ), #314, .T. ) ;
#177 = CALENDAR_DATE ( 2025, 17, 8 ) ;
#178 = PERSON_AND_ORGANIZATION ( #40, #254 ) ;
#179 = SECURITY_CLASSIFICATION ( '', '', #154 ) ;
#180 = ORIENTED_EDGE ( 'NONE', *, *, #184, .F. ) ;
#181 = DATE_TIME_ROLE ( 'classification_date' ) ;
#182 = VECTOR ( 'NONE', #55, 1000.000000000000000 ) ;
#183 = ADVANCED_BREP_SHAPE_REPRESENTATION ( '', ( #17, #58 ), #115 ) ;
#184 = EDGE_CURVE ( 'NONE', #349, #11, #321, .T. ) ;
#185 = VERTEX_POINT ( 'NONE', #347 ) ;
#186 = PERSON_AND_ORGANIZATION ( #40, #254 ) ;
#187 = PLANE ( 'NONE',  #34 ) ;
#188 = CALENDAR_DATE ( 2025, 17, 8 ) ;
#189 = VERTEX_POINT ( 'NONE', #191 ) ;
#190 = PRODUCT_DEFINITION_SHAPE ( 'NONE', 'NONE',  #138 ) ;
#191 = CARTESIAN_POINT ( 'NONE',  ( -1200.000000000000227, -6.000000000000000000, -605.0000000000000000 ) ) ;
#192 = CARTESIAN_POINT ( 'NONE',  ( 1199.999999999999773, -6.000000000000000000, 604.9999999999997726 ) ) ;
#193 = LOCAL_TIME ( 15, 13, 28.00000000000000000, #248 ) ;
#194 = CC_DESIGN_PERSON_AND_ORGANIZATION_ASSIGNMENT ( #202, #259, ( #138 ) ) ;
#195 = CARTESIAN_POINT ( 'NONE',  ( -1200.000000000000227, -6.000000000000000000, -605.0000000000000000 ) ) ;
#196 = CLOSED_SHELL ( 'NONE', ( #312, #3, #176, #99, #200, #348 ) ) ;
#197 = CALENDAR_DATE ( 2025, 17, 8 ) ;
#198 = DIRECTION ( 'NONE',  ( 0.000000000000000000, -0.000000000000000000, -1.000000000000000000 ) ) ;
#199 = CC_DESIGN_APPROVAL ( #85, ( #179 ) ) ;
#200 = ADVANCED_FACE ( 'NONE', ( #130 ), #299, .T. ) ;
#201 = LINE ( 'NONE', #250, #306 ) ;
#202 = PERSON_AND_ORGANIZATION ( #40, #254 ) ;
#203 = PRODUCT_DEFINITION_FORMATION_WITH_SPECIFIED_SOURCE ( 'ANY', '', #79, .NOT_KNOWN. ) ;
#204 = DIRECTION ( 'NONE',  ( 1.000000000000000000, 0.000000000000000000, 0.000000000000000000 ) ) ;
#205 = CC_DESIGN_DATE_AND_TIME_ASSIGNMENT ( #260, #73, ( #220 ) ) ;
#206 = EDGE_LOOP ( 'NONE', ( #208, #126, #65, #124 ) ) ;
#207 = DIRECTION ( 'NONE',  ( 0.000000000000000000, 0.000000000000000000, 1.000000000000000000 ) ) ;
#208 = ORIENTED_EDGE ( 'NONE', *, *, #251, .T. ) ;
#209 = PERSON_AND_ORGANIZATION_ROLE ( 'design_owner' ) ;
#210 = ORIENTED_EDGE ( 'NONE', *, *, #184, .T. ) ;
#211 = DATE_AND_TIME ( #95, #238 ) ;
#212 = EDGE_CURVE ( 'NONE', #11, #235, #101, .T. ) ;
#213 = PERSON_AND_ORGANIZATION ( #40, #254 ) ;
#214 = DIRECTION ( 'NONE',  ( 1.387778780781445429E-16, 0.000000000000000000, 1.000000000000000000 ) ) ;
#215 = APPROVAL_DATE_TIME ( #100, #163 ) ;
#216 = DIRECTION ( 'NONE',  ( -1.000000000000000000, 0.000000000000000000, 9.251858538542971581E-17 ) ) ;
#217 = DATE_AND_TIME ( #313, #22 ) ;
#218 = APPROVAL ( #125, 'UNSPECIFIED' ) ;
#219 = CARTESIAN_POINT ( 'NONE',  ( -1200.000000000000227, -6.000000000000000000, 605.0000000000001137 ) ) ;
#220 = SECURITY_CLASSIFICATION ( '', '', #265 ) ;
#221 = DIRECTION ( 'NONE',  ( -9.251858538542970348E-17, 0.000000000000000000, -1.000000000000000000 ) ) ;
#222 = PERSON_AND_ORGANIZATION ( #40, #254 ) ;
#223 = LINE ( 'NONE', #70, #241 ) ;
#224 =( LENGTH_UNIT ( ) NAMED_UNIT ( * ) SI_UNIT ( .MILLI., .METRE. ) );
#225 = DIRECTION ( 'NONE',  ( -0.000000000000000000, -0.000000000000000000, 1.000000000000000000 ) ) ;
#226 = AXIS2_PLACEMENT_3D ( 'NONE', #50, #214, #158 ) ;
#227 = CALENDAR_DATE ( 2025, 17, 8 ) ;
#228 = CC_DESIGN_PERSON_AND_ORGANIZATION_ASSIGNMENT ( #213, #134, ( #297 ) ) ;
#229 = COORDINATED_UNIVERSAL_TIME_OFFSET ( 10, 0, .AHEAD. ) ;
#230 = APPROVAL_PERSON_ORGANIZATION ( #222, #218, #10 ) ;
#231 = DIRECTION ( 'NONE',  ( 0.000000000000000000, 0.000000000000000000, 1.000000000000000000 ) ) ;
#232 = PERSON_AND_ORGANIZATION ( #40, #254 ) ;
#233 = ORIENTED_EDGE ( 'NONE', *, *, #322, .F. ) ;
#234 = PERSON ( 'NAUO-PER1', 'UNSPECIFIED', 'UNSPECIFIED', ('UNSPECIFIED'), ('UNSPECIFIED'), ('UNSPECIFIED') ) ;
#235 = VERTEX_POINT ( 'NONE', #139 ) ;
#236 = PRODUCT_DEFINITION ( 'UNKNOWN', '', #302, #346 ) ;
#237 = SHAPE_DEFINITION_REPRESENTATION ( #190, #2 ) ;
#238 = LOCAL_TIME ( 15, 13, 28.00000000000000000, #123 ) ;
#239 = VERTEX_POINT ( 'NONE', #249 ) ;
#240 = ORIENTED_EDGE ( 'NONE', *, *, #27, .F. ) ;
#241 = VECTOR ( 'NONE', #106, 1000.000000000000000 ) ;
#242 = EDGE_CURVE ( 'NONE', #11, #239, #355, .T. ) ;
#243 = MECHANICAL_CONTEXT ( 'NONE', #117, 'mechanical' ) ;
#244 = ORIENTED_EDGE ( 'NONE', *, *, #251, .F. ) ;
#245 = PERSON_AND_ORGANIZATION_ROLE ( 'design_supplier' ) ;
#246 = DIRECTION ( 'NONE',  ( 0.000000000000000000, 0.000000000000000000, -1.000000000000000000 ) ) ;
#247 = APPROVAL_PERSON_ORGANIZATION ( #178, #128, #153 ) ;
#248 = COORDINATED_UNIVERSAL_TIME_OFFSET ( 10, 0, .AHEAD. ) ;
#249 = CARTESIAN_POINT ( 'NONE',  ( 1199.999999999999773, -6.000000000000000000, -605.0000000000002274 ) ) ;
#250 = CARTESIAN_POINT ( 'NONE',  ( -1200.000000000000227, -6.000000000000000000, 605.0000000000001137 ) ) ;
#251 = EDGE_CURVE ( 'NONE', #309, #235, #301, .T. ) ;
#252 = DIRECTION ( 'NONE',  ( -0.000000000000000000, 0.000000000000000000, 1.000000000000000000 ) ) ;
#253 = LOCAL_TIME ( 15, 13, 28.00000000000000000, #317 ) ;
#254 = ORGANIZATION ( 'UNSPECIFIED', 'UNSPECIFIED', '' ) ;
#255 = EDGE_CURVE ( 'NONE', #189, #185, #304, .T. ) ;
#256 = APPROVAL_DATE_TIME ( #335, #328 ) ;
#257 = PERSON_AND_ORGANIZATION ( #40, #254 ) ;
#258 = EDGE_LOOP ( 'NONE', ( #37, #92, #210, #9 ) ) ;
#259 = PERSON_AND_ORGANIZATION_ROLE ( 'creator' ) ;
#260 = DATE_AND_TIME ( #75, #318 ) ;
#261 = PERSON_AND_ORGANIZATION ( #40, #254 ) ;
#262 = CC_DESIGN_APPROVAL ( #328, ( #138 ) ) ;
#263 = CC_DESIGN_PERSON_AND_ORGANIZATION_ASSIGNMENT ( #261, #103, ( #302 ) ) ;
#264 = DIRECTION ( 'NONE',  ( -1.000000000000000000, 0.000000000000000000, -0.000000000000000000 ) ) ;
#265 = SECURITY_CLASSIFICATION_LEVEL ( 'unclassified' ) ;
#266 = PLANE ( 'NONE',  #131 ) ;
#267 = APPLICATION_PROTOCOL_DEFINITION ( 'international standard', 'config_control_design', 1994, #336 ) ;
#268 = DIRECTION ( 'NONE',  ( 1.000000000000000000, 0.000000000000000000, 0.000000000000000000 ) ) ;
#269 = CC_DESIGN_APPROVAL ( #172, ( #220 ) ) ;
#270 = VECTOR ( 'NONE', #76, 1000.000000000000000 ) ;
#271 = PLANE ( 'NONE',  #43 ) ;
#272 = CC_DESIGN_PERSON_AND_ORGANIZATION_ASSIGNMENT ( #232, #311, ( #203 ) ) ;
#273 = APPROVAL_ROLE ( '' ) ;
#274 = CARTESIAN_POINT ( 'NONE',  ( 1199.999999999999773, 6.000000000000000000, -605.0000000000002274 ) ) ;
#275 =( NAMED_UNIT ( * ) PLANE_ANGLE_UNIT ( ) SI_UNIT ( $, .RADIAN. ) );
#276 =( NAMED_UNIT ( * ) SI_UNIT ( $, .STERADIAN. ) SOLID_ANGLE_UNIT ( ) );
#277 = APPROVAL_PERSON_ORGANIZATION ( #28, #85, #273 ) ;
#278 = CC_DESIGN_PERSON_AND_ORGANIZATION_ASSIGNMENT ( #257, #209, ( #79 ) ) ;
#279 = VECTOR ( 'NONE', #51, 1000.000000000000000 ) ;
#280 =( NAMED_UNIT ( * ) SI_UNIT ( $, .STERADIAN. ) SOLID_ANGLE_UNIT ( ) );
#281 = DESIGN_CONTEXT ( 'detailed design', #15, 'design' ) ;
#282 = DATE_AND_TIME ( #93, #30 ) ;
#283 = VERTEX_POINT ( 'NONE', #113 ) ;
#284 = EDGE_CURVE ( 'NONE', #185, #309, #114, .T. ) ;
#285 = VECTOR ( 'NONE', #225, 1000.000000000000000 ) ;
#286 =( REPRESENTATION_RELATIONSHIP ('NONE','NONE', #2, #325 ) REPRESENTATION_RELATIONSHIP_WITH_TRANSFORMATION ( #156 )SHAPE_REPRESENTATION_RELATIONSHIP( ) );
#287 = PERSON_AND_ORGANIZATION_ROLE ( 'classification_officer' ) ;
#288 = APPROVAL_ROLE ( '' ) ;
#289 = VECTOR ( 'NONE', #78, 1000.000000000000000 ) ;
#290 = ORIENTED_EDGE ( 'NONE', *, *, #284, .T. ) ;
#291 = CALENDAR_DATE ( 2025, 17, 8 ) ;
#292 = PRODUCT_RELATED_PRODUCT_CATEGORY ( 'detail', '', ( #79 ) ) ;
#293 = APPROVAL_PERSON_ORGANIZATION ( #137, #172, #48 ) ;
#294 = CARTESIAN_POINT ( 'NONE',  ( 8.396061623727743813E-14, 6.000000000000000000, 604.9999999999998863 ) ) ;
#295 = APPROVAL_STATUS ( 'not_yet_approved' ) ;
#296 = LINE ( 'NONE', #294, #279 ) ;
#297 = PRODUCT ( 'STANDARD PLYWOOD SHEET_PLYWOOD-12mm', 'STANDARD PLYWOOD SHEET_PLYWOOD-12mm', '', ( #243 ) ) ;
#298 = APPROVAL_ROLE ( '' ) ;
#299 = PLANE ( 'NONE',  #226 ) ;
#300 = COORDINATED_UNIVERSAL_TIME_OFFSET ( 10, 0, .AHEAD. ) ;
#301 = LINE ( 'NONE', #358, #66 ) ;
#302 = PRODUCT_DEFINITION_FORMATION_WITH_SPECIFIED_SOURCE ( 'ANY', '', #297, .NOT_KNOWN. ) ;
#303 = CARTESIAN_POINT ( 'NONE',  ( 0.000000000000000000, 6.000000000000000000, 0.000000000000000000 ) ) ;
#304 = LINE ( 'NONE', #195, #182 ) ;
#305 = APPROVAL_DATE_TIME ( #168, #85 ) ;
#306 = VECTOR ( 'NONE', #171, 1000.000000000000000 ) ;
#307 = CARTESIAN_POINT ( 'NONE',  ( 0.000000000000000000, 0.000000000000000000, 0.000000000000000000 ) ) ;
#308 = APPROVAL_STATUS ( 'not_yet_approved' ) ;
#309 = VERTEX_POINT ( 'NONE', #274 ) ;
#310 = COORDINATED_UNIVERSAL_TIME_OFFSET ( 10, 0, .AHEAD. ) ;
#311 = PERSON_AND_ORGANIZATION_ROLE ( 'design_supplier' ) ;
#312 = ADVANCED_FACE ( 'NONE', ( #142 ), #169, .T. ) ;
#313 = CALENDAR_DATE ( 2025, 17, 8 ) ;
#314 = PLANE ( 'NONE',  #140 ) ;
#315 = COORDINATED_UNIVERSAL_TIME_OFFSET ( 10, 0, .AHEAD. ) ;
#316 = CARTESIAN_POINT ( 'NONE',  ( 1199.999999999999773, -6.000000000000000000, 604.9999999999997726 ) ) ;
#317 = COORDINATED_UNIVERSAL_TIME_OFFSET ( 10, 0, .AHEAD. ) ;
#318 = LOCAL_TIME ( 15, 13, 28.00000000000000000, #49 ) ;
#319 = ORIENTED_EDGE ( 'NONE', *, *, #52, .T. ) ;
#320 = PERSON_AND_ORGANIZATION_ROLE ( 'classification_officer' ) ;
#321 = LINE ( 'NONE', #42, #270 ) ;
#322 = EDGE_CURVE ( 'NONE', #189, #349, #84, .T. ) ;
#323 = SHAPE_DEFINITION_REPRESENTATION ( #157, #325 ) ;
#324 = CARTESIAN_POINT ( 'NONE',  ( 1199.999999999999773, -6.000000000000000000, 604.9999999999997726 ) ) ;
#325 = SHAPE_REPRESENTATION ( 'STANDARD PLYWOOD SHEET_PLYWOOD-12mm', ( #58 ), #115 ) ;
#326 = SHAPE_REPRESENTATION_RELATIONSHIP ( 'NONE' , 'NONE' ,  #325, #183 ) ;
#327 = LOCAL_TIME ( 15, 13, 28.00000000000000000, #229 ) ;
#328 = APPROVAL ( #32, 'UNSPECIFIED' ) ;
#329 = CARTESIAN_POINT ( 'NONE',  ( 0.000000000000000000, 0.000000000000000000, 0.000000000000000000 ) ) ;
#330 = DIRECTION ( 'NONE',  ( 0.000000000000000000, -1.000000000000000000, 0.000000000000000000 ) ) ;
#331 = FACE_OUTER_BOUND ( 'NONE', #25, .T. ) ;
#332 = CARTESIAN_POINT ( 'NONE',  ( 0.000000000000000000, -6.000000000000000000, 0.000000000000000000 ) ) ;
#333 = DIRECTION ( 'NONE',  ( 1.000000000000000000, 0.000000000000000000, -9.251858538542970348E-17 ) ) ;
#334 = VECTOR ( 'NONE', #166, 1000.000000000000000 ) ;
#335 = DATE_AND_TIME ( #227, #165 ) ;
#336 = APPLICATION_CONTEXT ( 'configuration controlled 3d designs of mechanical parts and assemblies' ) ;
#337 = LOCAL_TIME ( 15, 13, 28.00000000000000000, #60 ) ;
#338 = PERSON_AND_ORGANIZATION ( #40, #254 ) ;
#339 = CC_DESIGN_PERSON_AND_ORGANIZATION_ASSIGNMENT ( #175, #8, ( #203 ) ) ;
#340 = DIRECTION ( 'NONE',  ( 1.000000000000000000, 0.000000000000000000, 0.000000000000000000 ) ) ;
#341 = ORIENTED_EDGE ( 'NONE', *, *, #147, .F. ) ;
#342 = PERSON_AND_ORGANIZATION ( #40, #254 ) ;
#343 = EDGE_LOOP ( 'NONE', ( #180, #233, #155, #59 ) ) ;
#344 = CC_DESIGN_APPROVAL ( #218, ( #302 ) ) ;
#345 = CALENDAR_DATE ( 2025, 17, 8 ) ;
#346 = DESIGN_CONTEXT ( 'detailed design', #336, 'design' ) ;
#347 = CARTESIAN_POINT ( 'NONE',  ( -1200.000000000000227, 6.000000000000000000, -605.0000000000000000 ) ) ;
#348 = ADVANCED_FACE ( 'NONE', ( #331 ), #271, .F. ) ;
#349 = VERTEX_POINT ( 'NONE', #108 ) ;
#350 = APPROVAL_STATUS ( 'not_yet_approved' ) ;
#351 = PERSON_AND_ORGANIZATION ( #40, #254 ) ;
#352 = AXIS2_PLACEMENT_3D ( 'NONE', #332, #330, #88 ) ;
#353 = CARTESIAN_POINT ( 'NONE',  ( 1199.999999999999773, -6.000000000000000000, -605.0000000000002274 ) ) ;
#354 = COORDINATED_UNIVERSAL_TIME_OFFSET ( 10, 0, .AHEAD. ) ;
#355 = LINE ( 'NONE', #324, #289 ) ;
#356 = DIRECTION ( 'NONE',  ( 1.000000000000000000, 0.000000000000000000, 0.000000000000000000 ) ) ;
#357 = EDGE_CURVE ( 'NONE', #349, #283, #201, .T. ) ;
#358 = CARTESIAN_POINT ( 'NONE',  ( 1199.999999999999773, 6.000000000000000000, 0.000000000000000000 ) ) ;
#359 = PERSON_AND_ORGANIZATION_ROLE ( 'classification_officer' ) ;
#360 = APPROVAL ( #350, 'UNSPECIFIED' ) ;
#361 = NEXT_ASSEMBLY_USAGE_OCCURRENCE ( 'NAUO1', ' ', ' ', #138, #236, $ ) ;
ENDSEC;
END-ISO-10303-21;
