ISO-10303-21;
HEADER;
FILE_DESCRIPTION (( 'STEP AP203' ),
    '1' );
FILE_NAME ('CV03-C-17_REV_A.step',
    '2025-08-17T05:19:50',
    ( '' ),
    ( '' ),
    'SwSTEP 2.0',
    'SolidWorks 2024',
    '' );
FILE_SCHEMA (( 'CONFIG_CONTROL_DESIGN' ));
ENDSEC;

DATA;
#1 = CARTESIAN_POINT ( 'NONE',  ( 500.0000000000000000, 25.00000000000000000, -0.7499999999999970024 ) ) ;
#2 = ADVANCED_FACE ( 'NONE', ( #70 ), #226, .T. ) ;
#3 = PERSON_AND_ORGANIZATION ( #68, #179 ) ;
#4 = ORIENTED_EDGE ( 'NONE', *, *, #5, .T. ) ;
#5 = EDGE_CURVE ( 'NONE', #52, #142, #31, .T. ) ;
#6 = DATE_AND_TIME ( #67, #185 ) ;
#7 = APPROVAL_DATE_TIME ( #174, #116 ) ;
#8 = CC_DESIGN_APPROVAL ( #199, ( #22 ) ) ;
#9 = PRODUCT_DEFINITION ( 'UNKNOWN', '', #22, #38 ) ;
#10 = UNCERTAINTY_MEASURE_WITH_UNIT (LENGTH_MEASURE( 1.000000000000000082E-05 ), #36, 'distance_accuracy_value', 'NONE');
#11 = ORIENTED_EDGE ( 'NONE', *, *, #139, .T. ) ;
#12 = CARTESIAN_POINT ( 'NONE',  ( 500.0000000000000000, 25.00000000000000000, 0.7500000000000031086 ) ) ;
#13 =( GEOMETRIC_REPRESENTATION_CONTEXT ( 3 ) GLOBAL_UNCERTAINTY_ASSIGNED_CONTEXT ( ( #10 ) ) GLOBAL_UNIT_ASSIGNED_CONTEXT ( ( #36, #18, #77 ) ) REPRESENTATION_CONTEXT ( 'NONE', 'WORKASPACE' ) );
#14 = EDGE_LOOP ( 'NONE', ( #197, #192, #154, #84 ) ) ;
#15 = FACE_OUTER_BOUND ( 'NONE', #143, .T. ) ;
#16 = DIRECTION ( 'NONE',  ( -0.000000000000000000, 0.000000000000000000, 1.000000000000000000 ) ) ;
#17 = DIRECTION ( 'NONE',  ( -1.000000000000000000, -0.000000000000000000, -0.000000000000000000 ) ) ;
#18 =( NAMED_UNIT ( * ) PLANE_ANGLE_UNIT ( ) SI_UNIT ( $, .RADIAN. ) );
#19 = FACE_OUTER_BOUND ( 'NONE', #33, .T. ) ;
#20 = CC_DESIGN_PERSON_AND_ORGANIZATION_ASSIGNMENT ( #223, #170, ( #53 ) ) ;
#21 = FACE_OUTER_BOUND ( 'NONE', #157, .T. ) ;
#22 = PRODUCT_DEFINITION_FORMATION_WITH_SPECIFIED_SOURCE ( 'ANY', '', #79, .NOT_KNOWN. ) ;
#23 = CALENDAR_DATE ( 2025, 17, 8 ) ;
#24 = PERSON_AND_ORGANIZATION ( #68, #179 ) ;
#25 = CC_DESIGN_APPROVAL ( #116, ( #53 ) ) ;
#26 = ORIENTED_EDGE ( 'NONE', *, *, #45, .T. ) ;
#27 = ADVANCED_FACE ( 'NONE', ( #15 ), #105, .T. ) ;
#28 = AXIS2_PLACEMENT_3D ( 'NONE', #233, #161, #76 ) ;
#29 = CARTESIAN_POINT ( 'NONE',  ( -500.0000000000000000, 25.00000000000000000, 0.7500000000000031086 ) ) ;
#30 = VERTEX_POINT ( 'NONE', #12 ) ;
#31 = LINE ( 'NONE', #29, #175 ) ;
#32 = DIRECTION ( 'NONE',  ( 0.000000000000000000, -1.000000000000000000, -1.214306433183764966E-16 ) ) ;
#33 = EDGE_LOOP ( 'NONE', ( #117, #109, #118, #120 ) ) ;
#34 = CARTESIAN_POINT ( 'NONE',  ( 500.0000000000000000, 25.00000000000000000, 0.7500000000000031086 ) ) ;
#35 = VERTEX_POINT ( 'NONE', #87 ) ;
#36 =( LENGTH_UNIT ( ) NAMED_UNIT ( * ) SI_UNIT ( .MILLI., .METRE. ) );
#37 = VECTOR ( 'NONE', #111, 1000.000000000000000 ) ;
#38 = DESIGN_CONTEXT ( 'detailed design', #145, 'design' ) ;
#39 = LINE ( 'NONE', #34, #37 ) ;
#40 = CC_DESIGN_PERSON_AND_ORGANIZATION_ASSIGNMENT ( #102, #65, ( #22 ) ) ;
#41 = DIRECTION ( 'NONE',  ( 0.000000000000000000, 1.235990476633475055E-16, -1.000000000000000000 ) ) ;
#42 = PERSON_AND_ORGANIZATION_ROLE ( 'design_owner' ) ;
#43 = PERSON_AND_ORGANIZATION_ROLE ( 'creator' ) ;
#44 = CARTESIAN_POINT ( 'NONE',  ( 0.000000000000000000, 0.000000000000000000, 0.000000000000000000 ) ) ;
#45 = EDGE_CURVE ( 'NONE', #30, #52, #160, .T. ) ;
#46 = ORIENTED_EDGE ( 'NONE', *, *, #123, .T. ) ;
#47 = APPROVAL_ROLE ( '' ) ;
#48 = ORIENTED_EDGE ( 'NONE', *, *, #45, .F. ) ;
#49 = VECTOR ( 'NONE', #218, 1000.000000000000000 ) ;
#50 = VERTEX_POINT ( 'NONE', #210 ) ;
#51 = EDGE_CURVE ( 'NONE', #206, #180, #172, .T. ) ;
#52 = VERTEX_POINT ( 'NONE', #198 ) ;
#53 = SECURITY_CLASSIFICATION ( '', '', #201 ) ;
#54 = LINE ( 'NONE', #166, #74 ) ;
#55 = APPROVAL ( #225, 'UNSPECIFIED' ) ;
#56 = CARTESIAN_POINT ( 'NONE',  ( -500.0000000000000000, -25.00000000000000000, 0.7499999999999970024 ) ) ;
#57 = EDGE_LOOP ( 'NONE', ( #122, #124, #229, #11 ) ) ;
#58 = CARTESIAN_POINT ( 'NONE',  ( 500.0000000000000000, -25.00000000000000000, -0.7500000000000029976 ) ) ;
#59 = DIRECTION ( 'NONE',  ( 0.000000000000000000, 0.000000000000000000, -1.000000000000000000 ) ) ;
#60 = AXIS2_PLACEMENT_3D ( 'NONE', #89, #231, #159 ) ;
#61 = PLANE ( 'NONE',  #110 ) ;
#62 = APPROVAL_DATE_TIME ( #187, #55 ) ;
#63 = APPLICATION_PROTOCOL_DEFINITION ( 'international standard', 'config_control_design', 1994, #64 ) ;
#64 = APPLICATION_CONTEXT ( 'configuration controlled 3d designs of mechanical parts and assemblies' ) ;
#65 = PERSON_AND_ORGANIZATION_ROLE ( 'design_supplier' ) ;
#66 = COORDINATED_UNIVERSAL_TIME_OFFSET ( 10, 0, .AHEAD. ) ;
#67 = CALENDAR_DATE ( 2025, 17, 8 ) ;
#68 = PERSON ( 'UNSPECIFIED', 'UNSPECIFIED', 'UNSPECIFIED', ('UNSPECIFIED'), ('UNSPECIFIED'), ('UNSPECIFIED') ) ;
#69 = LOCAL_TIME ( 15, 19, 50.00000000000000000, #227 ) ;
#70 = FACE_OUTER_BOUND ( 'NONE', #14, .T. ) ;
#71 = ORIENTED_EDGE ( 'NONE', *, *, #139, .F. ) ;
#72 = CARTESIAN_POINT ( 'NONE',  ( 500.0000000000000000, 25.00000000000000000, 0.7500000000000031086 ) ) ;
#73 = EDGE_CURVE ( 'NONE', #35, #101, #184, .T. ) ;
#74 = VECTOR ( 'NONE', #17, 1000.000000000000000 ) ;
#75 = DIRECTION ( 'NONE',  ( -1.000000000000000000, -0.000000000000000000, -0.000000000000000000 ) ) ;
#76 = DIRECTION ( 'NONE',  ( -0.000000000000000000, 0.000000000000000000, 1.000000000000000000 ) ) ;
#77 =( NAMED_UNIT ( * ) SI_UNIT ( $, .STERADIAN. ) SOLID_ANGLE_UNIT ( ) );
#78 = CARTESIAN_POINT ( 'NONE',  ( 500.0000000000000000, -25.00000000000000000, 0.7499999999999970024 ) ) ;
#79 = PRODUCT ( 'CV03-C-17_REV_A', 'CV03-C-17_REV_A', '', ( #100 ) ) ;
#80 = DIRECTION ( 'NONE',  ( 0.000000000000000000, -1.000000000000000000, -1.214306433183764966E-16 ) ) ;
#81 = DATE_TIME_ROLE ( 'creation_date' ) ;
#82 = CALENDAR_DATE ( 2025, 17, 8 ) ;
#83 = CALENDAR_DATE ( 2025, 17, 8 ) ;
#84 = ORIENTED_EDGE ( 'NONE', *, *, #106, .T. ) ;
#85 = EDGE_CURVE ( 'NONE', #142, #50, #235, .T. ) ;
#86 = AXIS2_PLACEMENT_3D ( 'NONE', #90, #232, #158 ) ;
#87 = CARTESIAN_POINT ( 'NONE',  ( 500.0000000000000000, -25.00000000000000000, 0.7499999999999970024 ) ) ;
#88 = CLOSED_SHELL ( 'NONE', ( #138, #2, #27, #189, #230, #222 ) ) ;
#89 = CARTESIAN_POINT ( 'NONE',  ( 500.0000000000000000, 25.00000000000000000, -0.7499999999999970024 ) ) ;
#90 = CARTESIAN_POINT ( 'NONE',  ( 500.0000000000000000, 25.00000000000000000, 0.7500000000000031086 ) ) ;
#91 = FACE_OUTER_BOUND ( 'NONE', #57, .T. ) ;
#92 = AXIS2_PLACEMENT_3D ( 'NONE', #78, #237, #96 ) ;
#93 = PLANE ( 'NONE',  #129 ) ;
#94 = LINE ( 'NONE', #220, #207 ) ;
#95 = ORIENTED_EDGE ( 'NONE', *, *, #85, .F. ) ;
#96 = DIRECTION ( 'NONE',  ( 0.000000000000000000, -0.000000000000000000, 1.000000000000000000 ) ) ;
#97 = DIRECTION ( 'NONE',  ( 0.000000000000000000, 0.000000000000000000, -1.000000000000000000 ) ) ;
#98 = EDGE_CURVE ( 'NONE', #180, #50, #213, .T. ) ;
#99 = COORDINATED_UNIVERSAL_TIME_OFFSET ( 10, 0, .AHEAD. ) ;
#100 = MECHANICAL_CONTEXT ( 'NONE', #64, 'mechanical' ) ;
#101 = VERTEX_POINT ( 'NONE', #144 ) ;
#102 = PERSON_AND_ORGANIZATION ( #68, #179 ) ;
#103 = APPROVAL_ROLE ( '' ) ;
#104 = APPROVAL_PERSON_ORGANIZATION ( #114, #116, #103 ) ;
#105 = PLANE ( 'NONE',  #86 ) ;
#106 = EDGE_CURVE ( 'NONE', #101, #50, #108, .T. ) ;
#107 = PLANE ( 'NONE',  #92 ) ;
#108 = LINE ( 'NONE', #58, #191 ) ;
#109 = ORIENTED_EDGE ( 'NONE', *, *, #106, .F. ) ;
#110 = AXIS2_PLACEMENT_3D ( 'NONE', #131, #41, #112 ) ;
#111 = DIRECTION ( 'NONE',  ( 0.000000000000000000, -1.000000000000000000, -1.235990476633475055E-16 ) ) ;
#112 = DIRECTION ( 'NONE',  ( 0.000000000000000000, 1.000000000000000000, 1.235990476633475055E-16 ) ) ;
#113 = CC_DESIGN_SECURITY_CLASSIFICATION ( #53, ( #22 ) ) ;
#114 = PERSON_AND_ORGANIZATION ( #68, #179 ) ;
#115 = LOCAL_TIME ( 15, 19, 50.00000000000000000, #66 ) ;
#116 = APPROVAL ( #152, 'UNSPECIFIED' ) ;
#117 = ORIENTED_EDGE ( 'NONE', *, *, #85, .T. ) ;
#118 = ORIENTED_EDGE ( 'NONE', *, *, #73, .F. ) ;
#119 = COORDINATED_UNIVERSAL_TIME_OFFSET ( 10, 0, .AHEAD. ) ;
#120 = ORIENTED_EDGE ( 'NONE', *, *, #148, .T. ) ;
#121 = MANIFOLD_SOLID_BREP ( 'Natural rubber insertion strip NATURAL RUBBER INSERTION STRIP 50X1.5(1)', #88 ) ;
#122 = ORIENTED_EDGE ( 'NONE', *, *, #73, .T. ) ;
#123 = EDGE_CURVE ( 'NONE', #52, #180, #94, .T. ) ;
#124 = ORIENTED_EDGE ( 'NONE', *, *, #217, .F. ) ;
#125 = CC_DESIGN_APPROVAL ( #55, ( #9 ) ) ;
#126 = FACE_OUTER_BOUND ( 'NONE', #188, .T. ) ;
#127 = CARTESIAN_POINT ( 'NONE',  ( -500.0000000000000000, 25.00000000000000000, -0.7499999999999970024 ) ) ;
#128 = PLANE ( 'NONE',  #28 ) ;
#129 = AXIS2_PLACEMENT_3D ( 'NONE', #195, #163, #16 ) ;
#130 = CARTESIAN_POINT ( 'NONE',  ( 500.0000000000000000, 25.00000000000000000, -0.7499999999999970024 ) ) ;
#131 = CARTESIAN_POINT ( 'NONE',  ( 500.0000000000000000, 25.00000000000000000, 0.7500000000000031086 ) ) ;
#132 = SHAPE_DEFINITION_REPRESENTATION ( #228, #169 ) ;
#133 = PERSON_AND_ORGANIZATION_ROLE ( 'creator' ) ;
#134 = APPROVAL_ROLE ( '' ) ;
#135 = CC_DESIGN_PERSON_AND_ORGANIZATION_ASSIGNMENT ( #3, #133, ( #9 ) ) ;
#136 = ORIENTED_EDGE ( 'NONE', *, *, #148, .F. ) ;
#137 = DIRECTION ( 'NONE',  ( 0.000000000000000000, 0.000000000000000000, 1.000000000000000000 ) ) ;
#138 = ADVANCED_FACE ( 'NONE', ( #19 ), #107, .F. ) ;
#139 = EDGE_CURVE ( 'NONE', #30, #35, #39, .T. ) ;
#140 = VECTOR ( 'NONE', #80, 1000.000000000000000 ) ;
#141 = DIRECTION ( 'NONE',  ( -1.000000000000000000, -0.000000000000000000, -0.000000000000000000 ) ) ;
#142 = VERTEX_POINT ( 'NONE', #216 ) ;
#143 = EDGE_LOOP ( 'NONE', ( #211, #48, #186, #209 ) ) ;
#144 = CARTESIAN_POINT ( 'NONE',  ( 500.0000000000000000, -25.00000000000000000, -0.7500000000000029976 ) ) ;
#145 = APPLICATION_CONTEXT ( 'configuration controlled 3d designs of mechanical parts and assemblies' ) ;
#146 = AXIS2_PLACEMENT_3D ( 'NONE', #44, #137, #224 ) ;
#147 = CARTESIAN_POINT ( 'NONE',  ( -500.0000000000000000, 25.00000000000000000, -0.7499999999999970024 ) ) ;
#148 = EDGE_CURVE ( 'NONE', #35, #142, #54, .T. ) ;
#149 = PERSON_AND_ORGANIZATION ( #68, #179 ) ;
#150 = APPROVAL_DATE_TIME ( #173, #199 ) ;
#151 = VECTOR ( 'NONE', #141, 1000.000000000000000 ) ;
#152 = APPROVAL_STATUS ( 'not_yet_approved' ) ;
#153 = PERSON_AND_ORGANIZATION ( #68, #179 ) ;
#154 = ORIENTED_EDGE ( 'NONE', *, *, #217, .T. ) ;
#155 = APPROVAL_STATUS ( 'not_yet_approved' ) ;
#156 = APPROVAL_PERSON_ORGANIZATION ( #24, #199, #134 ) ;
#157 = EDGE_LOOP ( 'NONE', ( #4, #136, #71, #26 ) ) ;
#158 = DIRECTION ( 'NONE',  ( 0.000000000000000000, -0.000000000000000000, 1.000000000000000000 ) ) ;
#159 = DIRECTION ( 'NONE',  ( 0.000000000000000000, 1.000000000000000000, 1.214306433183764966E-16 ) ) ;
#160 = LINE ( 'NONE', #72, #151 ) ;
#161 = DIRECTION ( 'NONE',  ( -1.000000000000000000, 0.000000000000000000, -0.000000000000000000 ) ) ;
#162 = VECTOR ( 'NONE', #75, 1000.000000000000000 ) ;
#163 = DIRECTION ( 'NONE',  ( -1.000000000000000000, 0.000000000000000000, -0.000000000000000000 ) ) ;
#164 = ORIENTED_EDGE ( 'NONE', *, *, #98, .T. ) ;
#165 = CC_DESIGN_PERSON_AND_ORGANIZATION_ASSIGNMENT ( #205, #43, ( #22 ) ) ;
#166 = CARTESIAN_POINT ( 'NONE',  ( 500.0000000000000000, -25.00000000000000000, 0.7499999999999970024 ) ) ;
#167 = APPROVAL_PERSON_ORGANIZATION ( #153, #55, #47 ) ;
#168 = LINE ( 'NONE', #1, #140 ) ;
#169 = ADVANCED_BREP_SHAPE_REPRESENTATION ( 'CV03-C-17_REV_A', ( #121, #146 ), #13 ) ;
#170 = PERSON_AND_ORGANIZATION_ROLE ( 'classification_officer' ) ;
#171 = CALENDAR_DATE ( 2025, 17, 8 ) ;
#172 = LINE ( 'NONE', #130, #162 ) ;
#173 = DATE_AND_TIME ( #23, #202 ) ;
#174 = DATE_AND_TIME ( #171, #234 ) ;
#175 = VECTOR ( 'NONE', #177, 1000.000000000000000 ) ;
#176 = ORIENTED_EDGE ( 'NONE', *, *, #5, .F. ) ;
#177 = DIRECTION ( 'NONE',  ( 0.000000000000000000, -1.000000000000000000, -1.235990476633475055E-16 ) ) ;
#178 = CC_DESIGN_PERSON_AND_ORGANIZATION_ASSIGNMENT ( #149, #42, ( #79 ) ) ;
#179 = ORGANIZATION ( 'UNSPECIFIED', 'UNSPECIFIED', '' ) ;
#180 = VERTEX_POINT ( 'NONE', #147 ) ;
#181 = LINE ( 'NONE', #215, #214 ) ;
#182 = DIRECTION ( 'NONE',  ( 0.000000000000000000, 0.000000000000000000, -1.000000000000000000 ) ) ;
#183 = CARTESIAN_POINT ( 'NONE',  ( 500.0000000000000000, -25.00000000000000000, 0.7499999999999970024 ) ) ;
#184 = LINE ( 'NONE', #183, #194 ) ;
#185 = LOCAL_TIME ( 15, 19, 50.00000000000000000, #99 ) ;
#186 = ORIENTED_EDGE ( 'NONE', *, *, #193, .T. ) ;
#187 = DATE_AND_TIME ( #83, #69 ) ;
#188 = EDGE_LOOP ( 'NONE', ( #95, #176, #46, #164 ) ) ;
#189 = ADVANCED_FACE ( 'NONE', ( #21 ), #61, .F. ) ;
#190 = DATE_TIME_ROLE ( 'classification_date' ) ;
#191 = VECTOR ( 'NONE', #200, 1000.000000000000000 ) ;
#192 = ORIENTED_EDGE ( 'NONE', *, *, #51, .F. ) ;
#193 = EDGE_CURVE ( 'NONE', #30, #206, #181, .T. ) ;
#194 = VECTOR ( 'NONE', #59, 1000.000000000000000 ) ;
#195 = CARTESIAN_POINT ( 'NONE',  ( -500.0000000000000000, 0.000000000000000000, 0.000000000000000000 ) ) ;
#196 = CARTESIAN_POINT ( 'NONE',  ( 500.0000000000000000, 25.00000000000000000, -0.7499999999999970024 ) ) ;
#197 = ORIENTED_EDGE ( 'NONE', *, *, #98, .F. ) ;
#198 = CARTESIAN_POINT ( 'NONE',  ( -500.0000000000000000, 25.00000000000000000, 0.7500000000000031086 ) ) ;
#199 = APPROVAL ( #155, 'UNSPECIFIED' ) ;
#200 = DIRECTION ( 'NONE',  ( -1.000000000000000000, -0.000000000000000000, -0.000000000000000000 ) ) ;
#201 = SECURITY_CLASSIFICATION_LEVEL ( 'unclassified' ) ;
#202 = LOCAL_TIME ( 15, 19, 50.00000000000000000, #119 ) ;
#203 = CC_DESIGN_DATE_AND_TIME_ASSIGNMENT ( #208, #81, ( #9 ) ) ;
#204 = COORDINATED_UNIVERSAL_TIME_OFFSET ( 10, 0, .AHEAD. ) ;
#205 = PERSON_AND_ORGANIZATION ( #68, #179 ) ;
#206 = VERTEX_POINT ( 'NONE', #196 ) ;
#207 = VECTOR ( 'NONE', #182, 1000.000000000000000 ) ;
#208 = DATE_AND_TIME ( #82, #115 ) ;
#209 = ORIENTED_EDGE ( 'NONE', *, *, #51, .T. ) ;
#210 = CARTESIAN_POINT ( 'NONE',  ( -500.0000000000000000, -25.00000000000000000, -0.7500000000000029976 ) ) ;
#211 = ORIENTED_EDGE ( 'NONE', *, *, #123, .F. ) ;
#212 = CC_DESIGN_DATE_AND_TIME_ASSIGNMENT ( #6, #190, ( #53 ) ) ;
#213 = LINE ( 'NONE', #127, #219 ) ;
#214 = VECTOR ( 'NONE', #97, 1000.000000000000000 ) ;
#215 = CARTESIAN_POINT ( 'NONE',  ( 500.0000000000000000, 25.00000000000000000, 0.7500000000000031086 ) ) ;
#216 = CARTESIAN_POINT ( 'NONE',  ( -500.0000000000000000, -25.00000000000000000, 0.7499999999999970024 ) ) ;
#217 = EDGE_CURVE ( 'NONE', #206, #101, #168, .T. ) ;
#218 = DIRECTION ( 'NONE',  ( 0.000000000000000000, 0.000000000000000000, -1.000000000000000000 ) ) ;
#219 = VECTOR ( 'NONE', #32, 1000.000000000000000 ) ;
#220 = CARTESIAN_POINT ( 'NONE',  ( -500.0000000000000000, 25.00000000000000000, 0.7500000000000031086 ) ) ;
#221 = APPLICATION_PROTOCOL_DEFINITION ( 'international standard', 'config_control_design', 1994, #145 ) ;
#222 = ADVANCED_FACE ( 'NONE', ( #126 ), #93, .T. ) ;
#223 = PERSON_AND_ORGANIZATION ( #68, #179 ) ;
#224 = DIRECTION ( 'NONE',  ( 1.000000000000000000, 0.000000000000000000, 0.000000000000000000 ) ) ;
#225 = APPROVAL_STATUS ( 'not_yet_approved' ) ;
#226 = PLANE ( 'NONE',  #60 ) ;
#227 = COORDINATED_UNIVERSAL_TIME_OFFSET ( 10, 0, .AHEAD. ) ;
#228 = PRODUCT_DEFINITION_SHAPE ( 'NONE', 'NONE',  #9 ) ;
#229 = ORIENTED_EDGE ( 'NONE', *, *, #193, .F. ) ;
#230 = ADVANCED_FACE ( 'NONE', ( #91 ), #128, .F. ) ;
#231 = DIRECTION ( 'NONE',  ( 0.000000000000000000, 1.214306433183764966E-16, -1.000000000000000000 ) ) ;
#232 = DIRECTION ( 'NONE',  ( -0.000000000000000000, 1.000000000000000000, 0.000000000000000000 ) ) ;
#233 = CARTESIAN_POINT ( 'NONE',  ( 500.0000000000000000, 0.000000000000000000, 0.000000000000000000 ) ) ;
#234 = LOCAL_TIME ( 15, 19, 50.00000000000000000, #204 ) ;
#235 = LINE ( 'NONE', #56, #49 ) ;
#236 = PRODUCT_RELATED_PRODUCT_CATEGORY ( 'detail', '', ( #79 ) ) ;
#237 = DIRECTION ( 'NONE',  ( -0.000000000000000000, 1.000000000000000000, 0.000000000000000000 ) ) ;
ENDSEC;
END-ISO-10303-21;
