ISO-10303-21;
HEADER;
FILE_DESCRIPTION (( 'STEP AP203' ),
    '1' );
FILE_NAME ('J003435-64_REV_.step',
    '2025-10-22T20:33:20',
    ( '' ),
    ( '' ),
    'SwSTEP 2.0',
    'SolidWorks 2024',
    '' );
FILE_SCHEMA (( 'CONFIG_CONTROL_DESIGN' ));
ENDSEC;

DATA;
#1 = CARTESIAN_POINT ( 'NONE',  ( 0.000000000000000000, 0.000000000000000000, 0.000000000000000000 ) ) ;
#2 = CIRCLE ( 'NONE', #190, 20.46999999999986031 ) ;
#3 = EDGE_CURVE ( 'NONE', #191, #248, #14, .T. ) ;
#4 = PRODUCT_RELATED_PRODUCT_CATEGORY ( 'detail', '', ( #176 ) ) ;
#5 = PLANE ( 'NONE',  #69 ) ;
#6 = APPROVAL_DATE_TIME ( #49, #216 ) ;
#7 = CIRCLE ( 'NONE', #19, 1675.850000000000364 ) ;
#8 = PERSON_AND_ORGANIZATION ( #80, #203 ) ;
#9 = APPROVAL_ROLE ( '' ) ;
#10 = MANIFOLD_SOLID_BREP ( 'Stainless chs 48.3 X 3.68 CHS(1)', #213 ) ;
#11 = ORIENTED_EDGE ( 'NONE', *, *, #228, .F. ) ;
#12 = ORIENTED_EDGE ( 'NONE', *, *, #202, .T. ) ;
#13 = VERTEX_POINT ( 'NONE', #231 ) ;
#14 = CIRCLE ( 'NONE', #50, 24.15000000000003411 ) ;
#15 = DIRECTION ( 'NONE',  ( 1.000000000000000000, 0.000000000000000000, 0.000000000000000000 ) ) ;
#16 = FACE_OUTER_BOUND ( 'NONE', #249, .T. ) ;
#17 = FACE_OUTER_BOUND ( 'NONE', #95, .T. ) ;
#18 = EDGE_CURVE ( 'NONE', #172, #152, #2, .T. ) ;
#19 = AXIS2_PLACEMENT_3D ( 'NONE', #237, #43, #61 ) ;
#20 = DIRECTION ( 'NONE',  ( 0.4783189288707286324, 0.8781862002354391405, 0.000000000000000000 ) ) ;
#21 = PRODUCT_DEFINITION_SHAPE ( 'NONE', 'NONE',  #29 ) ;
#22 = DIRECTION ( 'NONE',  ( 0.000000000000000000, 0.000000000000000000, 1.000000000000000000 ) ) ;
#23 = DIRECTION ( 'NONE',  ( 1.000000000000000000, 0.000000000000000000, 0.000000000000000000 ) ) ;
#24 = CARTESIAN_POINT ( 'NONE',  ( 0.000000000000000000, 0.000000000000000000, 0.000000000000000000 ) ) ;
#25 = CALENDAR_DATE ( 2025, 23, 10 ) ;
#26 = SHAPE_DEFINITION_REPRESENTATION ( #21, #92 ) ;
#27 = DATE_AND_TIME ( #25, #45 ) ;
#28 = TOROIDAL_SURFACE ( 'NONE', #181, 1700.000000000000455, 20.46999999999993136 ) ;
#29 = PRODUCT_DEFINITION ( 'UNKNOWN', '', #167, #126 ) ;
#30 = DATE_AND_TIME ( #72, #113 ) ;
#31 = CC_DESIGN_APPROVAL ( #174, ( #121 ) ) ;
#32 = CARTESIAN_POINT ( 'NONE',  ( 0.000000000000000000, 0.000000000000000000, 0.000000000000000000 ) ) ;
#33 = ORIENTED_EDGE ( 'NONE', *, *, #107, .T. ) ;
#34 = DIRECTION ( 'NONE',  ( 0.8781862002354398067, -0.4783189288707275777, 0.000000000000000000 ) ) ;
#35 = AXIS2_PLACEMENT_3D ( 'NONE', #177, #125, #38 ) ;
#36 = DIRECTION ( 'NONE',  ( -0.5984130773903447720, -0.8011877363066769453, 0.000000000000000000 ) ) ;
#37 = CARTESIAN_POINT ( 'NONE',  ( -813.1421790802371561, -1492.916540400248323, 0.000000000000000000 ) ) ;
#38 = DIRECTION ( 'NONE',  ( 1.000000000000000000, 0.000000000000000000, 0.000000000000000000 ) ) ;
#39 = CC_DESIGN_APPROVAL ( #148, ( #29 ) ) ;
#40 = DIRECTION ( 'NONE',  ( 0.4783189288707306863, 0.8781862002354381413, 0.000000000000000000 ) ) ;
#41 = EDGE_CURVE ( 'NONE', #13, #172, #166, .T. ) ;
#42 = CARTESIAN_POINT ( 'NONE',  ( -803.3509906062532764, -1474.940068881428715, -2.506851997854623876E-15 ) ) ;
#43 = DIRECTION ( 'NONE',  ( 0.000000000000000000, 0.000000000000000000, 1.000000000000000000 ) ) ;
#44 = AXIS2_PLACEMENT_3D ( 'NONE', #220, #238, #23 ) ;
#45 = LOCAL_TIME ( 7, 33, 20.00000000000000000, #227 ) ;
#46 = DIRECTION ( 'NONE',  ( 0.000000000000000000, 0.000000000000000000, 1.000000000000000000 ) ) ;
#47 = PERSON_AND_ORGANIZATION_ROLE ( 'design_owner' ) ;
#48 = CALENDAR_DATE ( 2025, 23, 10 ) ;
#49 = DATE_AND_TIME ( #71, #157 ) ;
#50 = AXIS2_PLACEMENT_3D ( 'NONE', #151, #205, #122 ) ;
#51 = CC_DESIGN_PERSON_AND_ORGANIZATION_ASSIGNMENT ( #162, #183, ( #167 ) ) ;
#52 = ORIENTED_EDGE ( 'NONE', *, *, #18, .F. ) ;
#53 = AXIS2_PLACEMENT_3D ( 'NONE', #218, #137, #195 ) ;
#54 = VERTEX_POINT ( 'NONE', #187 ) ;
#55 = ORIENTED_EDGE ( 'NONE', *, *, #129, .T. ) ;
#56 = FACE_OUTER_BOUND ( 'NONE', #97, .T. ) ;
#57 = CC_DESIGN_PERSON_AND_ORGANIZATION_ASSIGNMENT ( #88, #143, ( #29 ) ) ;
#58 = APPLICATION_CONTEXT ( 'configuration controlled 3d designs of mechanical parts and assemblies' ) ;
#59 = ORIENTED_EDGE ( 'NONE', *, *, #107, .F. ) ;
#60 = DIRECTION ( 'NONE',  ( 0.8781862002354398067, -0.4783189288707274667, 0.000000000000000000 ) ) ;
#61 = DIRECTION ( 'NONE',  ( 1.000000000000000000, 0.000000000000000000, 0.000000000000000000 ) ) ;
#62 = AXIS2_PLACEMENT_3D ( 'NONE', #93, #232, #15 ) ;
#63 = AXIS2_PLACEMENT_3D ( 'NONE', #85, #66, #239 ) ;
#64 = CIRCLE ( 'NONE', #131, 1724.150000000000546 ) ;
#65 = DIRECTION ( 'NONE',  ( 0.8781862002354398067, -0.4783189288707275777, 0.000000000000000000 ) ) ;
#66 = DIRECTION ( 'NONE',  ( 0.000000000000000000, 0.000000000000000000, 1.000000000000000000 ) ) ;
#67 = APPROVAL_STATUS ( 'not_yet_approved' ) ;
#68 = ADVANCED_FACE ( 'NONE', ( #99, #56 ), #135, .F. ) ;
#69 = AXIS2_PLACEMENT_3D ( 'NONE', #37, #60, #104 ) ;
#70 = PERSON_AND_ORGANIZATION ( #80, #203 ) ;
#71 = CALENDAR_DATE ( 2025, 23, 10 ) ;
#72 = CALENDAR_DATE ( 2025, 23, 10 ) ;
#73 = CC_DESIGN_DATE_AND_TIME_ASSIGNMENT ( #225, #204, ( #121 ) ) ;
#74 = PERSON_AND_ORGANIZATION ( #80, #203 ) ;
#75 = ORIENTED_EDGE ( 'NONE', *, *, #156, .T. ) ;
#76 = ORIENTED_EDGE ( 'NONE', *, *, #212, .F. ) ;
#77 = ORIENTED_EDGE ( 'NONE', *, *, #212, .T. ) ;
#78 = ADVANCED_FACE ( 'NONE', ( #16 ), #96, .T. ) ;
#79 = CARTESIAN_POINT ( 'NONE',  ( -813.1421790802371561, -1492.916540400248323, 0.000000000000000000 ) ) ;
#80 = PERSON ( 'UNSPECIFIED', 'UNSPECIFIED', 'UNSPECIFIED', ('UNSPECIFIED'), ('UNSPECIFIED'), ('UNSPECIFIED') ) ;
#81 = CARTESIAN_POINT ( 'NONE',  ( -822.9333675542206947, -1510.893011919067249, 0.000000000000000000 ) ) ;
#82 = CARTESIAN_POINT ( 'NONE',  ( -801.5907769480088518, -1471.708343664562108, -2.957522019940870157E-15 ) ) ;
#83 = AXIS2_PLACEMENT_3D ( 'NONE', #32, #169, #245 ) ;
#84 = TOROIDAL_SURFACE ( 'NONE', #63, 1700.000000000000455, 24.15000000000009805 ) ;
#85 = CARTESIAN_POINT ( 'NONE',  ( 0.000000000000000000, 0.000000000000000000, 0.000000000000000000 ) ) ;
#86 = ADVANCED_FACE ( 'NONE', ( #115 ), #119, .F. ) ;
#87 = PERSON_AND_ORGANIZATION_ROLE ( 'design_supplier' ) ;
#88 = PERSON_AND_ORGANIZATION ( #80, #203 ) ;
#89 = APPROVAL_ROLE ( '' ) ;
#90 = CIRCLE ( 'NONE', #206, 24.15000000000003411 ) ;
#91 = COORDINATED_UNIVERSAL_TIME_OFFSET ( 10, 0, .AHEAD. ) ;
#92 = ADVANCED_BREP_SHAPE_REPRESENTATION ( 'J003435-64_REV_', ( #10, #186 ), #128 ) ;
#93 = CARTESIAN_POINT ( 'NONE',  ( 0.000000000000000000, 0.000000000000000000, -2.506851997854623876E-15 ) ) ;
#94 = UNCERTAINTY_MEASURE_WITH_UNIT (LENGTH_MEASURE( 1.000000000000000082E-05 ), #217, 'distance_accuracy_value', 'NONE');
#95 = EDGE_LOOP ( 'NONE', ( #77, #133, #235, #150 ) ) ;
#96 = TOROIDAL_SURFACE ( 'NONE', #83, 1700.000000000000455, 24.15000000000009805 ) ;
#97 = EDGE_LOOP ( 'NONE', ( #76, #170 ) ) ;
#98 = EDGE_CURVE ( 'NONE', #152, #172, #146, .T. ) ;
#99 = FACE_BOUND ( 'NONE', #149, .T. ) ;
#100 = ORIENTED_EDGE ( 'NONE', *, *, #18, .T. ) ;
#101 =( NAMED_UNIT ( * ) PLANE_ANGLE_UNIT ( ) SI_UNIT ( $, .RADIAN. ) );
#102 = AXIS2_PLACEMENT_3D ( 'NONE', #154, #158, #103 ) ;
#103 = DIRECTION ( 'NONE',  ( 0.8011877363066763902, -0.5984130773903456602, 0.000000000000000000 ) ) ;
#104 = DIRECTION ( 'NONE',  ( 0.4783189288707274667, 0.8781862002354398067, 0.000000000000000000 ) ) ;
#105 = FACE_OUTER_BOUND ( 'NONE', #171, .T. ) ;
#106 = AXIS2_PLACEMENT_3D ( 'NONE', #140, #138, #196 ) ;
#107 = EDGE_CURVE ( 'NONE', #116, #152, #219, .T. ) ;
#108 = FACE_OUTER_BOUND ( 'NONE', #250, .T. ) ;
#109 = APPROVAL_DATE_TIME ( #27, #148 ) ;
#110 = PERSON_AND_ORGANIZATION ( #80, #203 ) ;
#111 = APPLICATION_PROTOCOL_DEFINITION ( 'international standard', 'config_control_design', 1994, #58 ) ;
#112 = MECHANICAL_CONTEXT ( 'NONE', #58, 'mechanical' ) ;
#113 = LOCAL_TIME ( 7, 33, 20.00000000000000000, #163 ) ;
#114 = ADVANCED_FACE ( 'NONE', ( #108 ), #28, .F. ) ;
#115 = FACE_OUTER_BOUND ( 'NONE', #185, .T. ) ;
#116 = VERTEX_POINT ( 'NONE', #123 ) ;
#117 = ORIENTED_EDGE ( 'NONE', *, *, #41, .T. ) ;
#118 = ADVANCED_FACE ( 'NONE', ( #155, #105 ), #5, .T. ) ;
#119 = TOROIDAL_SURFACE ( 'NONE', #35, 1700.000000000000455, 20.46999999999993136 ) ;
#120 = DIRECTION ( 'NONE',  ( 0.4783189288707286324, 0.8781862002354391405, 0.000000000000000000 ) ) ;
#121 = SECURITY_CLASSIFICATION ( '', '', #242 ) ;
#122 = DIRECTION ( 'NONE',  ( 0.4783189288707306863, 0.8781862002354381413, 0.000000000000000000 ) ) ;
#123 = CARTESIAN_POINT ( 'NONE',  ( -1378.419464683548767, 1029.551747257766465, 0.000000000000000000 ) ) ;
#124 = CARTESIAN_POINT ( 'NONE',  ( -1342.670467889544625, 1002.850555744609210, -2.957522019940870157E-15 ) ) ;
#125 = DIRECTION ( 'NONE',  ( 0.000000000000000000, 0.000000000000000000, 1.000000000000000000 ) ) ;
#126 = DESIGN_CONTEXT ( 'detailed design', #136, 'design' ) ;
#127 = COORDINATED_UNIVERSAL_TIME_OFFSET ( 10, 0, .AHEAD. ) ;
#128 =( GEOMETRIC_REPRESENTATION_CONTEXT ( 3 ) GLOBAL_UNCERTAINTY_ASSIGNED_CONTEXT ( ( #94 ) ) GLOBAL_UNIT_ASSIGNED_CONTEXT ( ( #217, #101, #179 ) ) REPRESENTATION_CONTEXT ( 'NONE', 'WORKASPACE' ) );
#129 = EDGE_CURVE ( 'NONE', #248, #191, #90, .T. ) ;
#130 = CIRCLE ( 'NONE', #233, 24.15000000000024727 ) ;
#131 = AXIS2_PLACEMENT_3D ( 'NONE', #1, #22, #178 ) ;
#132 = CARTESIAN_POINT ( 'NONE',  ( -813.1421790802371561, -1492.916540400248323, 0.000000000000000000 ) ) ;
#133 = ORIENTED_EDGE ( 'NONE', *, *, #247, .T. ) ;
#134 = ORIENTED_EDGE ( 'NONE', *, *, #98, .T. ) ;
#135 = PLANE ( 'NONE',  #201 ) ;
#136 = APPLICATION_CONTEXT ( 'configuration controlled 3d designs of mechanical parts and assemblies' ) ;
#137 = DIRECTION ( 'NONE',  ( -0.5984130773903447720, -0.8011877363066770563, 0.000000000000000000 ) ) ;
#138 = DIRECTION ( 'NONE',  ( -0.5984130773903447720, -0.8011877363066770563, 0.000000000000000000 ) ) ;
#139 = DIRECTION ( 'NONE',  ( 0.000000000000000000, 0.000000000000000000, 1.000000000000000000 ) ) ;
#140 = CARTESIAN_POINT ( 'NONE',  ( -1362.019151721351136, 1017.302231563586247, 0.000000000000000000 ) ) ;
#141 = COORDINATED_UNIVERSAL_TIME_OFFSET ( 10, 0, .AHEAD. ) ;
#142 = LOCAL_TIME ( 7, 33, 20.00000000000000000, #127 ) ;
#143 = PERSON_AND_ORGANIZATION_ROLE ( 'creator' ) ;
#144 = APPLICATION_PROTOCOL_DEFINITION ( 'international standard', 'config_control_design', 1994, #136 ) ;
#145 = APPROVAL_ROLE ( '' ) ;
#146 = CIRCLE ( 'NONE', #180, 20.46999999999986031 ) ;
#147 = CARTESIAN_POINT ( 'NONE',  ( 0.000000000000000000, 0.000000000000000000, 0.000000000000000000 ) ) ;
#148 = APPROVAL ( #67, 'UNSPECIFIED' ) ;
#149 = EDGE_LOOP ( 'NONE', ( #12, #229 ) ) ;
#150 = ORIENTED_EDGE ( 'NONE', *, *, #244, .F. ) ;
#151 = CARTESIAN_POINT ( 'NONE',  ( -813.1421790802371561, -1492.916540400248323, 0.000000000000000000 ) ) ;
#152 = VERTEX_POINT ( 'NONE', #81 ) ;
#153 = ORIENTED_EDGE ( 'NONE', *, *, #3, .T. ) ;
#154 = CARTESIAN_POINT ( 'NONE',  ( -1362.019151721351136, 1017.302231563586247, 0.000000000000000000 ) ) ;
#155 = FACE_BOUND ( 'NONE', #173, .T. ) ;
#156 = EDGE_CURVE ( 'NONE', #54, #211, #175, .T. ) ;
#157 = LOCAL_TIME ( 7, 33, 20.00000000000000000, #141 ) ;
#158 = DIRECTION ( 'NONE',  ( -0.5984130773903447720, -0.8011877363066770563, 0.000000000000000000 ) ) ;
#159 = DIRECTION ( 'NONE',  ( 0.8011877363066763902, -0.5984130773903456602, 0.000000000000000000 ) ) ;
#160 = CC_DESIGN_PERSON_AND_ORGANIZATION_ASSIGNMENT ( #74, #168, ( #121 ) ) ;
#161 = CIRCLE ( 'NONE', #53, 20.47000000000004505 ) ;
#162 = PERSON_AND_ORGANIZATION ( #80, #203 ) ;
#163 = COORDINATED_UNIVERSAL_TIME_OFFSET ( 10, 0, .AHEAD. ) ;
#164 = PERSON_AND_ORGANIZATION ( #80, #203 ) ;
#165 = CC_DESIGN_PERSON_AND_ORGANIZATION_ASSIGNMENT ( #8, #47, ( #176 ) ) ;
#166 = CIRCLE ( 'NONE', #62, 1679.530000000000427 ) ;
#167 = PRODUCT_DEFINITION_FORMATION_WITH_SPECIFIED_SOURCE ( 'ANY', '', #176, .NOT_KNOWN. ) ;
#168 = PERSON_AND_ORGANIZATION_ROLE ( 'classification_officer' ) ;
#169 = DIRECTION ( 'NONE',  ( 0.000000000000000000, 0.000000000000000000, 1.000000000000000000 ) ) ;
#170 = ORIENTED_EDGE ( 'NONE', *, *, #156, .F. ) ;
#171 = EDGE_LOOP ( 'NONE', ( #55, #153 ) ) ;
#172 = VERTEX_POINT ( 'NONE', #42 ) ;
#173 = EDGE_LOOP ( 'NONE', ( #52, #230 ) ) ;
#174 = APPROVAL ( #223, 'UNSPECIFIED' ) ;
#175 = CIRCLE ( 'NONE', #102, 24.15000000000024727 ) ;
#176 = PRODUCT ( 'J003435-64_REV_', 'J003435-64_REV_', '', ( #112 ) ) ;
#177 = CARTESIAN_POINT ( 'NONE',  ( 0.000000000000000000, 0.000000000000000000, 0.000000000000000000 ) ) ;
#178 = DIRECTION ( 'NONE',  ( 1.000000000000000000, 0.000000000000000000, 0.000000000000000000 ) ) ;
#179 =( NAMED_UNIT ( * ) SI_UNIT ( $, .STERADIAN. ) SOLID_ANGLE_UNIT ( ) );
#180 = AXIS2_PLACEMENT_3D ( 'NONE', #132, #65, #20 ) ;
#181 = AXIS2_PLACEMENT_3D ( 'NONE', #24, #139, #182 ) ;
#182 = DIRECTION ( 'NONE',  ( 1.000000000000000000, 0.000000000000000000, 0.000000000000000000 ) ) ;
#183 = PERSON_AND_ORGANIZATION_ROLE ( 'creator' ) ;
#184 = CALENDAR_DATE ( 2025, 23, 10 ) ;
#185 = EDGE_LOOP ( 'NONE', ( #59, #189, #117, #100 ) ) ;
#186 = AXIS2_PLACEMENT_3D ( 'NONE', #147, #46, #198 ) ;
#187 = CARTESIAN_POINT ( 'NONE',  ( -1381.367835553157647, 1031.753907382563284, 0.000000000000000000 ) ) ;
#188 = ORIENTED_EDGE ( 'NONE', *, *, #41, .F. ) ;
#189 = ORIENTED_EDGE ( 'NONE', *, *, #202, .F. ) ;
#190 = AXIS2_PLACEMENT_3D ( 'NONE', #79, #34, #120 ) ;
#191 = VERTEX_POINT ( 'NONE', #236 ) ;
#192 = ADVANCED_FACE ( 'NONE', ( #17 ), #84, .T. ) ;
#193 = DIRECTION ( 'NONE',  ( 0.8011877363066768343, -0.5984130773903446610, 0.000000000000000000 ) ) ;
#194 = DIRECTION ( 'NONE',  ( 0.8781862002354398067, -0.4783189288707275777, 0.000000000000000000 ) ) ;
#195 = DIRECTION ( 'NONE',  ( 0.8011877363066753910, -0.5984130773903466594, 0.000000000000000000 ) ) ;
#196 = DIRECTION ( 'NONE',  ( 0.8011877363066753910, -0.5984130773903466594, 0.000000000000000000 ) ) ;
#197 = LOCAL_TIME ( 7, 33, 20.00000000000000000, #91 ) ;
#198 = DIRECTION ( 'NONE',  ( 1.000000000000000000, 0.000000000000000000, 0.000000000000000000 ) ) ;
#199 = DATE_AND_TIME ( #48, #142 ) ;
#200 = APPROVAL_DATE_TIME ( #199, #174 ) ;
#201 = AXIS2_PLACEMENT_3D ( 'NONE', #215, #36, #193 ) ;
#202 = EDGE_CURVE ( 'NONE', #13, #116, #214, .T. ) ;
#203 = ORGANIZATION ( 'UNSPECIFIED', 'UNSPECIFIED', '' ) ;
#204 = DATE_TIME_ROLE ( 'classification_date' ) ;
#205 = DIRECTION ( 'NONE',  ( 0.8781862002354398067, -0.4783189288707275777, 0.000000000000000000 ) ) ;
#206 = AXIS2_PLACEMENT_3D ( 'NONE', #221, #194, #40 ) ;
#207 = CC_DESIGN_PERSON_AND_ORGANIZATION_ASSIGNMENT ( #110, #87, ( #167 ) ) ;
#208 = CC_DESIGN_SECURITY_CLASSIFICATION ( #121, ( #167 ) ) ;
#209 = ORIENTED_EDGE ( 'NONE', *, *, #247, .F. ) ;
#210 = ORIENTED_EDGE ( 'NONE', *, *, #244, .T. ) ;
#211 = VERTEX_POINT ( 'NONE', #124 ) ;
#212 = EDGE_CURVE ( 'NONE', #211, #54, #130, .T. ) ;
#213 = CLOSED_SHELL ( 'NONE', ( #192, #114, #78, #118, #68, #86 ) ) ;
#214 = CIRCLE ( 'NONE', #106, 20.47000000000004505 ) ;
#215 = CARTESIAN_POINT ( 'NONE',  ( -1362.019151721351136, 1017.302231563586247, 0.000000000000000000 ) ) ;
#216 = APPROVAL ( #226, 'UNSPECIFIED' ) ;
#217 =( LENGTH_UNIT ( ) NAMED_UNIT ( * ) SI_UNIT ( .MILLI., .METRE. ) );
#218 = CARTESIAN_POINT ( 'NONE',  ( -1362.019151721351136, 1017.302231563586247, 0.000000000000000000 ) ) ;
#219 = CIRCLE ( 'NONE', #44, 1720.470000000000482 ) ;
#220 = CARTESIAN_POINT ( 'NONE',  ( 0.000000000000000000, 0.000000000000000000, 0.000000000000000000 ) ) ;
#221 = CARTESIAN_POINT ( 'NONE',  ( -813.1421790802371561, -1492.916540400248323, 0.000000000000000000 ) ) ;
#222 = DIRECTION ( 'NONE',  ( -0.5984130773903447720, -0.8011877363066770563, 0.000000000000000000 ) ) ;
#223 = APPROVAL_STATUS ( 'not_yet_approved' ) ;
#224 = APPROVAL_PERSON_ORGANIZATION ( #164, #148, #89 ) ;
#225 = DATE_AND_TIME ( #184, #197 ) ;
#226 = APPROVAL_STATUS ( 'not_yet_approved' ) ;
#227 = COORDINATED_UNIVERSAL_TIME_OFFSET ( 10, 0, .AHEAD. ) ;
#228 = EDGE_CURVE ( 'NONE', #116, #13, #161, .T. ) ;
#229 = ORIENTED_EDGE ( 'NONE', *, *, #228, .T. ) ;
#230 = ORIENTED_EDGE ( 'NONE', *, *, #98, .F. ) ;
#231 = CARTESIAN_POINT ( 'NONE',  ( -1345.618838759153732, 1005.052715869405802, -2.506851997854623876E-15 ) ) ;
#232 = DIRECTION ( 'NONE',  ( 0.000000000000000000, 0.000000000000000000, 1.000000000000000000 ) ) ;
#233 = AXIS2_PLACEMENT_3D ( 'NONE', #253, #222, #159 ) ;
#234 = APPROVAL_PERSON_ORGANIZATION ( #243, #216, #9 ) ;
#235 = ORIENTED_EDGE ( 'NONE', *, *, #129, .F. ) ;
#236 = CARTESIAN_POINT ( 'NONE',  ( -824.6935812124651193, -1514.124737135934083, 0.000000000000000000 ) ) ;
#237 = CARTESIAN_POINT ( 'NONE',  ( 0.000000000000000000, 0.000000000000000000, -2.957522019940870157E-15 ) ) ;
#238 = DIRECTION ( 'NONE',  ( 0.000000000000000000, 0.000000000000000000, 1.000000000000000000 ) ) ;
#239 = DIRECTION ( 'NONE',  ( 1.000000000000000000, 0.000000000000000000, 0.000000000000000000 ) ) ;
#240 = DATE_TIME_ROLE ( 'creation_date' ) ;
#241 = CC_DESIGN_APPROVAL ( #216, ( #167 ) ) ;
#242 = SECURITY_CLASSIFICATION_LEVEL ( 'unclassified' ) ;
#243 = PERSON_AND_ORGANIZATION ( #80, #203 ) ;
#244 = EDGE_CURVE ( 'NONE', #211, #248, #7, .T. ) ;
#245 = DIRECTION ( 'NONE',  ( 1.000000000000000000, 0.000000000000000000, 0.000000000000000000 ) ) ;
#246 = ORIENTED_EDGE ( 'NONE', *, *, #3, .F. ) ;
#247 = EDGE_CURVE ( 'NONE', #54, #191, #64, .T. ) ;
#248 = VERTEX_POINT ( 'NONE', #82 ) ;
#249 = EDGE_LOOP ( 'NONE', ( #209, #75, #210, #246 ) ) ;
#250 = EDGE_LOOP ( 'NONE', ( #11, #33, #134, #188 ) ) ;
#251 = APPROVAL_PERSON_ORGANIZATION ( #70, #174, #145 ) ;
#252 = CC_DESIGN_DATE_AND_TIME_ASSIGNMENT ( #30, #240, ( #29 ) ) ;
#253 = CARTESIAN_POINT ( 'NONE',  ( -1362.019151721351136, 1017.302231563586247, 0.000000000000000000 ) ) ;
ENDSEC;
END-ISO-10303-21;
