ISO-10303-21;
HEADER;
FILE_DESCRIPTION (( 'STEP AP203' ),
    '1' );
FILE_NAME ('M10-FW_REV_.step',
    '2026-01-28T00:17:33',
    ( '' ),
    ( '' ),
    'SwSTEP 2.0',
    'SolidWorks 2025',
    '' );
FILE_SCHEMA (( 'CONFIG_CONTROL_DESIGN' ));
ENDSEC;

DATA;
#1 = COORDINATED_UNIVERSAL_TIME_OFFSET ( 10, 0, .AHEAD. ) ;
#2 = EDGE_CURVE ( 'NONE', #243, #205, #52, .T. ) ;
#3 = CARTESIAN_POINT ( 'NONE',  ( 0.000000000000000000, 0.000000000000000000, 0.000000000000000000 ) ) ;
#4 = COORDINATED_UNIVERSAL_TIME_OFFSET ( 10, 0, .AHEAD. ) ;
#5 = CARTESIAN_POINT ( 'NONE',  ( 0.000000000000000000, -2.000000000000000000, 10.00000000000000000 ) ) ;
#6 = CC_DESIGN_PERSON_AND_ORGANIZATION_ASSIGNMENT ( #146, #112, ( #59 ) ) ;
#7 = CARTESIAN_POINT ( 'NONE',  ( 1.224646799147353256E-15, -2.000000000000000000, -10.00000000000000000 ) ) ;
#8 = VECTOR ( 'NONE', #224, 1000.000000000000000 ) ;
#9 = AXIS2_PLACEMENT_3D ( 'NONE', #145, #100, #15 ) ;
#10 = ORIENTED_EDGE ( 'NONE', *, *, #17, .F. ) ;
#11 = DIRECTION ( 'NONE',  ( -0.000000000000000000, 1.000000000000000000, -0.000000000000000000 ) ) ;
#12 = ORIENTED_EDGE ( 'NONE', *, *, #2, .F. ) ;
#13 = ORIENTED_EDGE ( 'NONE', *, *, #60, .F. ) ;
#14 = DIRECTION ( 'NONE',  ( 0.000000000000000000, 0.000000000000000000, 1.000000000000000000 ) ) ;
#15 = DIRECTION ( 'NONE',  ( 0.000000000000000000, 0.000000000000000000, 1.000000000000000000 ) ) ;
#16 = APPLICATION_PROTOCOL_DEFINITION ( 'international standard', 'config_control_design', 1994, #116 ) ;
#17 = EDGE_CURVE ( 'NONE', #81, #226, #191, .T. ) ;
#18 = DIRECTION ( 'NONE',  ( 0.000000000000000000, 0.000000000000000000, 1.000000000000000000 ) ) ;
#19 = PERSON_AND_ORGANIZATION_ROLE ( 'classification_officer' ) ;
#20 = FACE_OUTER_BOUND ( 'NONE', #105, .T. ) ;
#21 = APPROVAL_PERSON_ORGANIZATION ( #53, #217, #90 ) ;
#22 = LOCAL_TIME ( 11, 17, 33.00000000000000000, #124 ) ;
#23 = ORIENTED_EDGE ( 'NONE', *, *, #198, .F. ) ;
#24 = CARTESIAN_POINT ( 'NONE',  ( 5.500000000000000000, -2.000000000000000000, 0.000000000000000000 ) ) ;
#25 = VERTEX_POINT ( 'NONE', #238 ) ;
#26 = CARTESIAN_POINT ( 'NONE',  ( 0.000000000000000000, 0.000000000000000000, 0.000000000000000000 ) ) ;
#27 = ORIENTED_EDGE ( 'NONE', *, *, #172, .F. ) ;
#28 = CARTESIAN_POINT ( 'NONE',  ( 0.000000000000000000, -2.000000000000000000, 0.000000000000000000 ) ) ;
#29 = ORIENTED_EDGE ( 'NONE', *, *, #111, .F. ) ;
#30 = FACE_BOUND ( 'NONE', #178, .T. ) ;
#31 = CC_DESIGN_APPROVAL ( #217, ( #134 ) ) ;
#32 = APPROVAL_STATUS ( 'not_yet_approved' ) ;
#33 = PERSON_AND_ORGANIZATION ( #72, #166 ) ;
#34 =( NAMED_UNIT ( * ) PLANE_ANGLE_UNIT ( ) SI_UNIT ( $, .RADIAN. ) );
#35 = CARTESIAN_POINT ( 'NONE',  ( 0.000000000000000000, -2.000000000000000000, 0.000000000000000000 ) ) ;
#36 = DIRECTION ( 'NONE',  ( -0.000000000000000000, 1.000000000000000000, -0.000000000000000000 ) ) ;
#37 = CC_DESIGN_DATE_AND_TIME_ASSIGNMENT ( #167, #235, ( #134 ) ) ;
#38 = CARTESIAN_POINT ( 'NONE',  ( 0.000000000000000000, 0.000000000000000000, 0.000000000000000000 ) ) ;
#39 = DIRECTION ( 'NONE',  ( 0.000000000000000000, 0.000000000000000000, 1.000000000000000000 ) ) ;
#40 = MANIFOLD_SOLID_BREP ( 'Revolve', #150 ) ;
#41 = VECTOR ( 'NONE', #171, 1000.000000000000000 ) ;
#42 = EDGE_CURVE ( 'NONE', #25, #243, #195, .T. ) ;
#43 = LINE ( 'NONE', #163, #96 ) ;
#44 = EDGE_LOOP ( 'NONE', ( #101, #27 ) ) ;
#45 = DIRECTION ( 'NONE',  ( 0.000000000000000000, 0.000000000000000000, 1.000000000000000000 ) ) ;
#46 = AXIS2_PLACEMENT_3D ( 'NONE', #158, #183, #175 ) ;
#47 = EDGE_LOOP ( 'NONE', ( #10, #140, #62, #49 ) ) ;
#48 = APPLICATION_CONTEXT ( 'configuration controlled 3d designs of mechanical parts and assemblies' ) ;
#49 = ORIENTED_EDGE ( 'NONE', *, *, #95, .F. ) ;
#50 = LOCAL_TIME ( 11, 17, 33.00000000000000000, #130 ) ;
#51 = APPROVAL_DATE_TIME ( #147, #217 ) ;
#52 = LINE ( 'NONE', #94, #76 ) ;
#53 = PERSON_AND_ORGANIZATION ( #72, #166 ) ;
#54 = CARTESIAN_POINT ( 'NONE',  ( 0.000000000000000000, 0.000000000000000000, 0.000000000000000000 ) ) ;
#55 = CC_DESIGN_APPROVAL ( #174, ( #212 ) ) ;
#56 = FACE_OUTER_BOUND ( 'NONE', #97, .T. ) ;
#57 = ORIENTED_EDGE ( 'NONE', *, *, #42, .T. ) ;
#58 = PRODUCT_DEFINITION_SHAPE ( 'NONE', 'NONE',  #134 ) ;
#59 = PRODUCT_DEFINITION_FORMATION_WITH_SPECIFIED_SOURCE ( 'ANY', '', #173, .NOT_KNOWN. ) ;
#60 = EDGE_CURVE ( 'NONE', #202, #226, #78, .T. ) ;
#61 = CIRCLE ( 'NONE', #113, 10.00000000000000000 ) ;
#62 = ORIENTED_EDGE ( 'NONE', *, *, #198, .T. ) ;
#63 = APPROVAL ( #114, 'UNSPECIFIED' ) ;
#64 = UNCERTAINTY_MEASURE_WITH_UNIT (LENGTH_MEASURE( 1.000000000000000082E-05 ), #204, 'distance_accuracy_value', 'NONE');
#65 = VERTEX_POINT ( 'NONE', #5 ) ;
#66 = CARTESIAN_POINT ( 'NONE',  ( 0.000000000000000000, -2.000000000000000000, 5.500000000000000000 ) ) ;
#67 = CC_DESIGN_APPROVAL ( #63, ( #59 ) ) ;
#68 = DIRECTION ( 'NONE',  ( -0.000000000000000000, 1.000000000000000000, -0.000000000000000000 ) ) ;
#69 = CALENDAR_DATE ( 2026, 28, 1 ) ;
#70 = CIRCLE ( 'NONE', #187, 5.500000000000000000 ) ;
#71 = PERSON_AND_ORGANIZATION ( #72, #166 ) ;
#72 = PERSON ( 'UNSPECIFIED', 'UNSPECIFIED', 'UNSPECIFIED', ('UNSPECIFIED'), ('UNSPECIFIED'), ('UNSPECIFIED') ) ;
#73 = DIRECTION ( 'NONE',  ( 0.000000000000000000, 0.000000000000000000, 1.000000000000000000 ) ) ;
#74 = CALENDAR_DATE ( 2026, 28, 1 ) ;
#75 = DIRECTION ( 'NONE',  ( -0.000000000000000000, 1.000000000000000000, -0.000000000000000000 ) ) ;
#76 = VECTOR ( 'NONE', #36, 1000.000000000000000 ) ;
#77 = DIRECTION ( 'NONE',  ( -0.000000000000000000, 1.000000000000000000, -0.000000000000000000 ) ) ;
#78 = CIRCLE ( 'NONE', #127, 10.00000000000000000 ) ;
#79 = AXIS2_PLACEMENT_3D ( 'NONE', #24, #102, #83 ) ;
#80 = DIRECTION ( 'NONE',  ( 0.000000000000000000, 0.000000000000000000, 1.000000000000000000 ) ) ;
#81 = VERTEX_POINT ( 'NONE', #7 ) ;
#82 = ADVANCED_FACE ( 'NONE', ( #20 ), #151, .T. ) ;
#83 = DIRECTION ( 'NONE',  ( 0.000000000000000000, 0.000000000000000000, 1.000000000000000000 ) ) ;
#84 = CARTESIAN_POINT ( 'NONE',  ( 6.735557395310442023E-16, 0.000000000000000000, -5.500000000000000000 ) ) ;
#85 = PERSON_AND_ORGANIZATION ( #72, #166 ) ;
#86 = LINE ( 'NONE', #84, #8 ) ;
#87 = CC_DESIGN_SECURITY_CLASSIFICATION ( #212, ( #59 ) ) ;
#88 = DIRECTION ( 'NONE',  ( -0.000000000000000000, 1.000000000000000000, -0.000000000000000000 ) ) ;
#89 = CARTESIAN_POINT ( 'NONE',  ( 0.000000000000000000, 0.000000000000000000, 0.000000000000000000 ) ) ;
#90 = APPROVAL_ROLE ( '' ) ;
#91 = CALENDAR_DATE ( 2026, 28, 1 ) ;
#92 = COORDINATED_UNIVERSAL_TIME_OFFSET ( 10, 0, .AHEAD. ) ;
#93 = CARTESIAN_POINT ( 'NONE',  ( 1.224646799147353256E-15, 0.000000000000000000, -10.00000000000000000 ) ) ;
#94 = CARTESIAN_POINT ( 'NONE',  ( 0.000000000000000000, 0.000000000000000000, 5.500000000000000000 ) ) ;
#95 = EDGE_CURVE ( 'NONE', #226, #202, #194, .T. ) ;
#96 = VECTOR ( 'NONE', #156, 1000.000000000000000 ) ;
#97 = EDGE_LOOP ( 'NONE', ( #223, #142, #119, #103 ) ) ;
#98 = LOCAL_TIME ( 11, 17, 33.00000000000000000, #92 ) ;
#99 = CC_DESIGN_PERSON_AND_ORGANIZATION_ASSIGNMENT ( #71, #184, ( #59 ) ) ;
#100 = DIRECTION ( 'NONE',  ( -0.000000000000000000, 1.000000000000000000, -0.000000000000000000 ) ) ;
#101 = ORIENTED_EDGE ( 'NONE', *, *, #143, .F. ) ;
#102 = DIRECTION ( 'NONE',  ( -0.000000000000000000, 1.000000000000000000, 0.000000000000000000 ) ) ;
#103 = ORIENTED_EDGE ( 'NONE', *, *, #190, .T. ) ;
#104 = CALENDAR_DATE ( 2026, 28, 1 ) ;
#105 = EDGE_LOOP ( 'NONE', ( #200, #233, #13, #23 ) ) ;
#106 = DIRECTION ( 'NONE',  ( -0.000000000000000000, 1.000000000000000000, -0.000000000000000000 ) ) ;
#107 = ORIENTED_EDGE ( 'NONE', *, *, #229, .T. ) ;
#108 = APPROVAL_DATE_TIME ( #203, #174 ) ;
#109 = CYLINDRICAL_SURFACE ( 'NONE', #9, 10.00000000000000000 ) ;
#110 = MECHANICAL_CONTEXT ( 'NONE', #116, 'mechanical' ) ;
#111 = EDGE_CURVE ( 'NONE', #177, #205, #237, .T. ) ;
#112 = PERSON_AND_ORGANIZATION_ROLE ( 'creator' ) ;
#113 = AXIS2_PLACEMENT_3D ( 'NONE', #28, #68, #227 ) ;
#114 = APPROVAL_STATUS ( 'not_yet_approved' ) ;
#115 = DIRECTION ( 'NONE',  ( -0.000000000000000000, 1.000000000000000000, -0.000000000000000000 ) ) ;
#116 = APPLICATION_CONTEXT ( 'configuration controlled 3d designs of mechanical parts and assemblies' ) ;
#117 = CC_DESIGN_DATE_AND_TIME_ASSIGNMENT ( #222, #244, ( #212 ) ) ;
#118 = PLANE ( 'NONE',  #46 ) ;
#119 = ORIENTED_EDGE ( 'NONE', *, *, #2, .T. ) ;
#120 = LOCAL_TIME ( 11, 17, 33.00000000000000000, #4 ) ;
#121 = CARTESIAN_POINT ( 'NONE',  ( 0.000000000000000000, -2.000000000000000000, 0.000000000000000000 ) ) ;
#122 = DESIGN_CONTEXT ( 'detailed design', #48, 'design' ) ;
#123 = ORIENTED_EDGE ( 'NONE', *, *, #190, .F. ) ;
#124 = COORDINATED_UNIVERSAL_TIME_OFFSET ( 10, 0, .AHEAD. ) ;
#125 = DIRECTION ( 'NONE',  ( -0.000000000000000000, 1.000000000000000000, -0.000000000000000000 ) ) ;
#126 = DIRECTION ( 'NONE',  ( 1.000000000000000000, 0.000000000000000000, 0.000000000000000000 ) ) ;
#127 = AXIS2_PLACEMENT_3D ( 'NONE', #215, #210, #188 ) ;
#128 = PERSON_AND_ORGANIZATION ( #72, #166 ) ;
#129 = ADVANCED_FACE ( 'NONE', ( #56 ), #133, .F. ) ;
#130 = COORDINATED_UNIVERSAL_TIME_OFFSET ( 10, 0, .AHEAD. ) ;
#131 = APPROVAL_ROLE ( '' ) ;
#132 = DIRECTION ( 'NONE',  ( 0.000000000000000000, 0.000000000000000000, 1.000000000000000000 ) ) ;
#133 = CYLINDRICAL_SURFACE ( 'NONE', #241, 5.500000000000000000 ) ;
#134 = PRODUCT_DEFINITION ( 'UNKNOWN', '', #59, #122 ) ;
#135 = AXIS2_PLACEMENT_3D ( 'NONE', #232, #18, #126 ) ;
#136 = ADVANCED_FACE ( 'NONE', ( #160 ), #109, .T. ) ;
#137 = LOCAL_TIME ( 11, 17, 33.00000000000000000, #1 ) ;
#138 = FACE_BOUND ( 'NONE', #245, .T. ) ;
#139 = FACE_OUTER_BOUND ( 'NONE', #44, .T. ) ;
#140 = ORIENTED_EDGE ( 'NONE', *, *, #172, .T. ) ;
#141 = CARTESIAN_POINT ( 'NONE',  ( 1.224646799147353256E-15, 0.000000000000000000, -10.00000000000000000 ) ) ;
#142 = ORIENTED_EDGE ( 'NONE', *, *, #214, .F. ) ;
#143 = EDGE_CURVE ( 'NONE', #65, #81, #61, .T. ) ;
#144 = EDGE_LOOP ( 'NONE', ( #159, #107, #157, #12 ) ) ;
#145 = CARTESIAN_POINT ( 'NONE',  ( 0.000000000000000000, 0.000000000000000000, 0.000000000000000000 ) ) ;
#146 = PERSON_AND_ORGANIZATION ( #72, #166 ) ;
#147 = DATE_AND_TIME ( #91, #137 ) ;
#148 =( NAMED_UNIT ( * ) SI_UNIT ( $, .STERADIAN. ) SOLID_ANGLE_UNIT ( ) );
#149 = PERSON_AND_ORGANIZATION_ROLE ( 'design_owner' ) ;
#150 = CLOSED_SHELL ( 'NONE', ( #82, #240, #129, #221, #136, #164 ) ) ;
#151 = CYLINDRICAL_SURFACE ( 'NONE', #218, 10.00000000000000000 ) ;
#152 = ORIENTED_EDGE ( 'NONE', *, *, #214, .T. ) ;
#153 = CC_DESIGN_PERSON_AND_ORGANIZATION_ASSIGNMENT ( #189, #149, ( #173 ) ) ;
#154 = CC_DESIGN_PERSON_AND_ORGANIZATION_ASSIGNMENT ( #186, #19, ( #212 ) ) ;
#155 = CIRCLE ( 'NONE', #162, 5.500000000000000000 ) ;
#156 = DIRECTION ( 'NONE',  ( -0.000000000000000000, 1.000000000000000000, -0.000000000000000000 ) ) ;
#157 = ORIENTED_EDGE ( 'NONE', *, *, #111, .T. ) ;
#158 = CARTESIAN_POINT ( 'NONE',  ( 5.500000000000000000, 0.000000000000000000, 0.000000000000000000 ) ) ;
#159 = ORIENTED_EDGE ( 'NONE', *, *, #42, .F. ) ;
#160 = FACE_OUTER_BOUND ( 'NONE', #47, .T. ) ;
#161 = APPROVAL_ROLE ( '' ) ;
#162 = AXIS2_PLACEMENT_3D ( 'NONE', #89, #106, #14 ) ;
#163 = CARTESIAN_POINT ( 'NONE',  ( 0.000000000000000000, 0.000000000000000000, 10.00000000000000000 ) ) ;
#164 = ADVANCED_FACE ( 'NONE', ( #30, #196 ), #118, .F. ) ;
#165 = APPLICATION_PROTOCOL_DEFINITION ( 'international standard', 'config_control_design', 1994, #48 ) ;
#166 = ORGANIZATION ( 'UNSPECIFIED', 'UNSPECIFIED', '' ) ;
#167 = DATE_AND_TIME ( #211, #50 ) ;
#168 = DIRECTION ( 'NONE',  ( 0.000000000000000000, 0.000000000000000000, 1.000000000000000000 ) ) ;
#169 = CC_DESIGN_PERSON_AND_ORGANIZATION_ASSIGNMENT ( #128, #207, ( #134 ) ) ;
#170 =( GEOMETRIC_REPRESENTATION_CONTEXT ( 3 ) GLOBAL_UNCERTAINTY_ASSIGNED_CONTEXT ( ( #64 ) ) GLOBAL_UNIT_ASSIGNED_CONTEXT ( ( #204, #34, #148 ) ) REPRESENTATION_CONTEXT ( 'NONE', 'WORKASPACE' ) );
#171 = DIRECTION ( 'NONE',  ( -0.000000000000000000, 1.000000000000000000, -0.000000000000000000 ) ) ;
#172 = EDGE_CURVE ( 'NONE', #81, #65, #176, .T. ) ;
#173 = PRODUCT ( 'M10-FW_REV_', 'M10-FW_REV_', '', ( #110 ) ) ;
#174 = APPROVAL ( #32, 'UNSPECIFIED' ) ;
#175 = DIRECTION ( 'NONE',  ( 0.000000000000000000, -0.000000000000000000, -1.000000000000000000 ) ) ;
#176 = CIRCLE ( 'NONE', #230, 10.00000000000000000 ) ;
#177 = VERTEX_POINT ( 'NONE', #249 ) ;
#178 = EDGE_LOOP ( 'NONE', ( #123, #29 ) ) ;
#179 = DIRECTION ( 'NONE',  ( -0.000000000000000000, 1.000000000000000000, -0.000000000000000000 ) ) ;
#180 = ORIENTED_EDGE ( 'NONE', *, *, #95, .T. ) ;
#181 = FACE_OUTER_BOUND ( 'NONE', #144, .T. ) ;
#182 = SHAPE_DEFINITION_REPRESENTATION ( #58, #234 ) ;
#183 = DIRECTION ( 'NONE',  ( 0.000000000000000000, -1.000000000000000000, 0.000000000000000000 ) ) ;
#184 = PERSON_AND_ORGANIZATION_ROLE ( 'design_supplier' ) ;
#185 = APPROVAL_STATUS ( 'not_yet_approved' ) ;
#186 = PERSON_AND_ORGANIZATION ( #72, #166 ) ;
#187 = AXIS2_PLACEMENT_3D ( 'NONE', #197, #125, #45 ) ;
#188 = DIRECTION ( 'NONE',  ( 0.000000000000000000, 0.000000000000000000, 1.000000000000000000 ) ) ;
#189 = PERSON_AND_ORGANIZATION ( #72, #166 ) ;
#190 = EDGE_CURVE ( 'NONE', #205, #177, #155, .T. ) ;
#191 = LINE ( 'NONE', #93, #41 ) ;
#192 = ORIENTED_EDGE ( 'NONE', *, *, #60, .T. ) ;
#193 = EDGE_LOOP ( 'NONE', ( #192, #180 ) ) ;
#194 = CIRCLE ( 'NONE', #206, 10.00000000000000000 ) ;
#195 = CIRCLE ( 'NONE', #199, 5.500000000000000000 ) ;
#196 = FACE_OUTER_BOUND ( 'NONE', #193, .T. ) ;
#197 = CARTESIAN_POINT ( 'NONE',  ( 0.000000000000000000, -2.000000000000000000, 0.000000000000000000 ) ) ;
#198 = EDGE_CURVE ( 'NONE', #65, #202, #43, .T. ) ;
#199 = AXIS2_PLACEMENT_3D ( 'NONE', #35, #77, #132 ) ;
#200 = ORIENTED_EDGE ( 'NONE', *, *, #143, .T. ) ;
#201 = CYLINDRICAL_SURFACE ( 'NONE', #216, 5.500000000000000000 ) ;
#202 = VERTEX_POINT ( 'NONE', #242 ) ;
#203 = DATE_AND_TIME ( #104, #22 ) ;
#204 =( LENGTH_UNIT ( ) NAMED_UNIT ( * ) SI_UNIT ( .MILLI., .METRE. ) );
#205 = VERTEX_POINT ( 'NONE', #220 ) ;
#206 = AXIS2_PLACEMENT_3D ( 'NONE', #38, #115, #168 ) ;
#207 = PERSON_AND_ORGANIZATION_ROLE ( 'creator' ) ;
#208 = DATE_AND_TIME ( #74, #120 ) ;
#209 = APPROVAL_DATE_TIME ( #208, #63 ) ;
#210 = DIRECTION ( 'NONE',  ( -0.000000000000000000, 1.000000000000000000, -0.000000000000000000 ) ) ;
#211 = CALENDAR_DATE ( 2026, 28, 1 ) ;
#212 = SECURITY_CLASSIFICATION ( '', '', #231 ) ;
#213 = CARTESIAN_POINT ( 'NONE',  ( 0.000000000000000000, 0.000000000000000000, 0.000000000000000000 ) ) ;
#214 = EDGE_CURVE ( 'NONE', #243, #25, #70, .T. ) ;
#215 = CARTESIAN_POINT ( 'NONE',  ( 0.000000000000000000, 0.000000000000000000, 0.000000000000000000 ) ) ;
#216 = AXIS2_PLACEMENT_3D ( 'NONE', #26, #179, #246 ) ;
#217 = APPROVAL ( #185, 'UNSPECIFIED' ) ;
#218 = AXIS2_PLACEMENT_3D ( 'NONE', #54, #236, #39 ) ;
#219 = PLANE ( 'NONE',  #79 ) ;
#220 = CARTESIAN_POINT ( 'NONE',  ( 0.000000000000000000, 0.000000000000000000, 5.500000000000000000 ) ) ;
#221 = ADVANCED_FACE ( 'NONE', ( #139, #138 ), #219, .F. ) ;
#222 = DATE_AND_TIME ( #69, #98 ) ;
#223 = ORIENTED_EDGE ( 'NONE', *, *, #229, .F. ) ;
#224 = DIRECTION ( 'NONE',  ( -0.000000000000000000, 1.000000000000000000, -0.000000000000000000 ) ) ;
#225 = AXIS2_PLACEMENT_3D ( 'NONE', #3, #75, #73 ) ;
#226 = VERTEX_POINT ( 'NONE', #141 ) ;
#227 = DIRECTION ( 'NONE',  ( 0.000000000000000000, 0.000000000000000000, 1.000000000000000000 ) ) ;
#228 = DIRECTION ( 'NONE',  ( 0.000000000000000000, 0.000000000000000000, 1.000000000000000000 ) ) ;
#229 = EDGE_CURVE ( 'NONE', #25, #177, #86, .T. ) ;
#230 = AXIS2_PLACEMENT_3D ( 'NONE', #121, #11, #80 ) ;
#231 = SECURITY_CLASSIFICATION_LEVEL ( 'unclassified' ) ;
#232 = CARTESIAN_POINT ( 'NONE',  ( 0.000000000000000000, 0.000000000000000000, 0.000000000000000000 ) ) ;
#233 = ORIENTED_EDGE ( 'NONE', *, *, #17, .T. ) ;
#234 = ADVANCED_BREP_SHAPE_REPRESENTATION ( 'M10-FW_REV_', ( #40, #135 ), #170 ) ;
#235 = DATE_TIME_ROLE ( 'creation_date' ) ;
#236 = DIRECTION ( 'NONE',  ( -0.000000000000000000, 1.000000000000000000, -0.000000000000000000 ) ) ;
#237 = CIRCLE ( 'NONE', #225, 5.500000000000000000 ) ;
#238 = CARTESIAN_POINT ( 'NONE',  ( 6.735557395310442023E-16, -2.000000000000000000, -5.500000000000000000 ) ) ;
#239 = APPROVAL_PERSON_ORGANIZATION ( #33, #63, #131 ) ;
#240 = ADVANCED_FACE ( 'NONE', ( #181 ), #201, .F. ) ;
#241 = AXIS2_PLACEMENT_3D ( 'NONE', #213, #88, #228 ) ;
#242 = CARTESIAN_POINT ( 'NONE',  ( 0.000000000000000000, 0.000000000000000000, 10.00000000000000000 ) ) ;
#243 = VERTEX_POINT ( 'NONE', #66 ) ;
#244 = DATE_TIME_ROLE ( 'classification_date' ) ;
#245 = EDGE_LOOP ( 'NONE', ( #152, #57 ) ) ;
#246 = DIRECTION ( 'NONE',  ( 0.000000000000000000, 0.000000000000000000, 1.000000000000000000 ) ) ;
#247 = APPROVAL_PERSON_ORGANIZATION ( #85, #174, #161 ) ;
#248 = PRODUCT_RELATED_PRODUCT_CATEGORY ( 'detail', '', ( #173 ) ) ;
#249 = CARTESIAN_POINT ( 'NONE',  ( 6.735557395310442023E-16, 0.000000000000000000, -5.500000000000000000 ) ) ;
ENDSEC;
END-ISO-10303-21;
