ISO-10303-21;
HEADER;
FILE_DESCRIPTION (( 'STEP AP203' ),
    '1' );
FILE_NAME ('M12 FLAT WASHER_REV_.step',
    '2026-01-04T05:03:05',
    ( '' ),
    ( '' ),
    'SwSTEP 2.0',
    'SolidWorks 2025',
    '' );
FILE_SCHEMA (( 'CONFIG_CONTROL_DESIGN' ));
ENDSEC;

DATA;
#1 = CC_DESIGN_APPROVAL ( #120, ( #231 ) ) ;
#2 = VERTEX_POINT ( 'NONE', #40 ) ;
#3 = VERTEX_POINT ( 'NONE', #194 ) ;
#4 = EDGE_LOOP ( 'NONE', ( #56, #22, #136, #217 ) ) ;
#5 = ORIENTED_EDGE ( 'NONE', *, *, #15, .T. ) ;
#6 = DIRECTION ( 'NONE',  ( -0.000000000000000000, 1.000000000000000000, -0.000000000000000000 ) ) ;
#7 = CARTESIAN_POINT ( 'NONE',  ( 0.000000000000000000, 0.000000000000000000, 0.000000000000000000 ) ) ;
#8 = PRODUCT_DEFINITION_FORMATION_WITH_SPECIFIED_SOURCE ( 'ANY', '', #160, .NOT_KNOWN. ) ;
#9 = DIRECTION ( 'NONE',  ( 0.000000000000000000, 0.000000000000000000, 1.000000000000000000 ) ) ;
#10 = CARTESIAN_POINT ( 'NONE',  ( 6.500000000000000000, 0.000000000000000000, 0.000000000000000000 ) ) ;
#11 = ADVANCED_FACE ( 'NONE', ( #58 ), #38, .T. ) ;
#12 = PRODUCT_RELATED_PRODUCT_CATEGORY ( 'detail', '', ( #160 ) ) ;
#13 = PERSON_AND_ORGANIZATION ( #206, #166 ) ;
#14 = APPROVAL_ROLE ( '' ) ;
#15 = EDGE_CURVE ( 'NONE', #175, #178, #196, .T. ) ;
#16 = PERSON_AND_ORGANIZATION_ROLE ( 'creator' ) ;
#17 = APPROVAL_ROLE ( '' ) ;
#18 = CIRCLE ( 'NONE', #47, 6.500000000000000000 ) ;
#19 = APPLICATION_PROTOCOL_DEFINITION ( 'international standard', 'config_control_design', 1994, #242 ) ;
#20 = ORIENTED_EDGE ( 'NONE', *, *, #77, .F. ) ;
#21 = EDGE_LOOP ( 'NONE', ( #215, #177 ) ) ;
#22 = ORIENTED_EDGE ( 'NONE', *, *, #31, .T. ) ;
#23 = APPROVAL_PERSON_ORGANIZATION ( #54, #120, #17 ) ;
#24 = ORIENTED_EDGE ( 'NONE', *, *, #15, .F. ) ;
#25 = LINE ( 'NONE', #27, #82 ) ;
#26 = DIRECTION ( 'NONE',  ( -0.000000000000000000, 1.000000000000000000, -0.000000000000000000 ) ) ;
#27 = CARTESIAN_POINT ( 'NONE',  ( 1.469576158976823947E-15, 0.000000000000000000, -12.00000000000000000 ) ) ;
#28 = DIRECTION ( 'NONE',  ( -0.000000000000000000, 1.000000000000000000, -0.000000000000000000 ) ) ;
#29 = CARTESIAN_POINT ( 'NONE',  ( 0.000000000000000000, 0.000000000000000000, 12.00000000000000000 ) ) ;
#30 = PERSON_AND_ORGANIZATION ( #206, #166 ) ;
#31 = EDGE_CURVE ( 'NONE', #2, #195, #104, .T. ) ;
#32 = CALENDAR_DATE ( 2026, 4, 1 ) ;
#33 = CALENDAR_DATE ( 2026, 4, 1 ) ;
#34 = AXIS2_PLACEMENT_3D ( 'NONE', #239, #46, #205 ) ;
#35 = APPROVAL_PERSON_ORGANIZATION ( #246, #94, #14 ) ;
#36 = PERSON_AND_ORGANIZATION ( #206, #166 ) ;
#37 = EDGE_LOOP ( 'NONE', ( #119, #232 ) ) ;
#38 = CYLINDRICAL_SURFACE ( 'NONE', #211, 12.00000000000000000 ) ;
#39 = AXIS2_PLACEMENT_3D ( 'NONE', #67, #62, #245 ) ;
#40 = CARTESIAN_POINT ( 'NONE',  ( 1.469576158976823947E-15, -2.500000000000000000, -12.00000000000000000 ) ) ;
#41 = VERTEX_POINT ( 'NONE', #216 ) ;
#42 = VECTOR ( 'NONE', #65, 1000.000000000000000 ) ;
#43 = FACE_BOUND ( 'NONE', #238, .T. ) ;
#44 = ADVANCED_FACE ( 'NONE', ( #164 ), #161, .F. ) ;
#45 = DIRECTION ( 'NONE',  ( -0.000000000000000000, 1.000000000000000000, -0.000000000000000000 ) ) ;
#46 = DIRECTION ( 'NONE',  ( -0.000000000000000000, 1.000000000000000000, -0.000000000000000000 ) ) ;
#47 = AXIS2_PLACEMENT_3D ( 'NONE', #243, #66, #222 ) ;
#48 = LOCAL_TIME ( 16, 3, 5.000000000000000000, #52 ) ;
#49 = DIRECTION ( 'NONE',  ( 0.000000000000000000, 0.000000000000000000, 1.000000000000000000 ) ) ;
#50 = DIRECTION ( 'NONE',  ( 0.000000000000000000, -0.000000000000000000, -1.000000000000000000 ) ) ;
#51 = APPROVAL_DATE_TIME ( #187, #94 ) ;
#52 = COORDINATED_UNIVERSAL_TIME_OFFSET ( 10, 0, .AHEAD. ) ;
#53 = CC_DESIGN_PERSON_AND_ORGANIZATION_ASSIGNMENT ( #73, #149, ( #8 ) ) ;
#54 = PERSON_AND_ORGANIZATION ( #206, #166 ) ;
#55 =( LENGTH_UNIT ( ) NAMED_UNIT ( * ) SI_UNIT ( .MILLI., .METRE. ) );
#56 = ORIENTED_EDGE ( 'NONE', *, *, #248, .F. ) ;
#57 = DIRECTION ( 'NONE',  ( -0.000000000000000000, 1.000000000000000000, -0.000000000000000000 ) ) ;
#58 = FACE_OUTER_BOUND ( 'NONE', #4, .T. ) ;
#59 = EDGE_LOOP ( 'NONE', ( #154, #212, #152, #123 ) ) ;
#60 = APPLICATION_CONTEXT ( 'configuration controlled 3d designs of mechanical parts and assemblies' ) ;
#61 = ORIENTED_EDGE ( 'NONE', *, *, #97, .T. ) ;
#62 = DIRECTION ( 'NONE',  ( -0.000000000000000000, 1.000000000000000000, -0.000000000000000000 ) ) ;
#63 = DESIGN_CONTEXT ( 'detailed design', #242, 'design' ) ;
#64 = CIRCLE ( 'NONE', #181, 6.500000000000000000 ) ;
#65 = DIRECTION ( 'NONE',  ( -0.000000000000000000, 1.000000000000000000, -0.000000000000000000 ) ) ;
#66 = DIRECTION ( 'NONE',  ( -0.000000000000000000, 1.000000000000000000, -0.000000000000000000 ) ) ;
#67 = CARTESIAN_POINT ( 'NONE',  ( 0.000000000000000000, 0.000000000000000000, 0.000000000000000000 ) ) ;
#68 =( GEOMETRIC_REPRESENTATION_CONTEXT ( 3 ) GLOBAL_UNCERTAINTY_ASSIGNED_CONTEXT ( ( #84 ) ) GLOBAL_UNIT_ASSIGNED_CONTEXT ( ( #55, #209, #75 ) ) REPRESENTATION_CONTEXT ( 'NONE', 'WORKASPACE' ) );
#69 = DIRECTION ( 'NONE',  ( -0.000000000000000000, 1.000000000000000000, -0.000000000000000000 ) ) ;
#70 = APPLICATION_PROTOCOL_DEFINITION ( 'international standard', 'config_control_design', 1994, #60 ) ;
#71 = APPROVAL_ROLE ( '' ) ;
#72 = CC_DESIGN_PERSON_AND_ORGANIZATION_ASSIGNMENT ( #13, #147, ( #170 ) ) ;
#73 = PERSON_AND_ORGANIZATION ( #206, #166 ) ;
#74 = CALENDAR_DATE ( 2026, 4, 1 ) ;
#75 =( NAMED_UNIT ( * ) SI_UNIT ( $, .STERADIAN. ) SOLID_ANGLE_UNIT ( ) );
#76 = ORIENTED_EDGE ( 'NONE', *, *, #173, .T. ) ;
#77 = EDGE_CURVE ( 'NONE', #178, #41, #223, .T. ) ;
#78 = CARTESIAN_POINT ( 'NONE',  ( 0.000000000000000000, 0.000000000000000000, 0.000000000000000000 ) ) ;
#79 = ORIENTED_EDGE ( 'NONE', *, *, #227, .T. ) ;
#80 = CC_DESIGN_PERSON_AND_ORGANIZATION_ASSIGNMENT ( #30, #133, ( #231 ) ) ;
#81 = ORIENTED_EDGE ( 'NONE', *, *, #97, .F. ) ;
#82 = VECTOR ( 'NONE', #108, 1000.000000000000000 ) ;
#83 = ORIENTED_EDGE ( 'NONE', *, *, #89, .T. ) ;
#84 = UNCERTAINTY_MEASURE_WITH_UNIT (LENGTH_MEASURE( 1.000000000000000082E-05 ), #55, 'distance_accuracy_value', 'NONE');
#85 = CC_DESIGN_PERSON_AND_ORGANIZATION_ASSIGNMENT ( #130, #16, ( #8 ) ) ;
#86 = FACE_OUTER_BOUND ( 'NONE', #37, .T. ) ;
#87 = DIRECTION ( 'NONE',  ( -0.000000000000000000, 1.000000000000000000, -0.000000000000000000 ) ) ;
#88 = DIRECTION ( 'NONE',  ( 0.000000000000000000, 0.000000000000000000, 1.000000000000000000 ) ) ;
#89 = EDGE_CURVE ( 'NONE', #234, #3, #121, .T. ) ;
#90 = EDGE_CURVE ( 'NONE', #195, #234, #109, .T. ) ;
#91 = FACE_OUTER_BOUND ( 'NONE', #198, .T. ) ;
#92 = AXIS2_PLACEMENT_3D ( 'NONE', #233, #57, #122 ) ;
#93 = COORDINATED_UNIVERSAL_TIME_OFFSET ( 10, 0, .AHEAD. ) ;
#94 = APPROVAL ( #169, 'UNSPECIFIED' ) ;
#95 = COORDINATED_UNIVERSAL_TIME_OFFSET ( 10, 0, .AHEAD. ) ;
#96 = AXIS2_PLACEMENT_3D ( 'NONE', #142, #6, #203 ) ;
#97 = EDGE_CURVE ( 'NONE', #178, #175, #64, .T. ) ;
#98 = ADVANCED_FACE ( 'NONE', ( #244 ), #128, .T. ) ;
#99 = VECTOR ( 'NONE', #28, 1000.000000000000000 ) ;
#100 = DIRECTION ( 'NONE',  ( -0.000000000000000000, 1.000000000000000000, -0.000000000000000000 ) ) ;
#101 = ADVANCED_BREP_SHAPE_REPRESENTATION ( 'M12 FLAT WASHER_REV_', ( #204, #230 ), #68 ) ;
#102 = DIRECTION ( 'NONE',  ( 0.000000000000000000, 0.000000000000000000, 1.000000000000000000 ) ) ;
#103 = VERTEX_POINT ( 'NONE', #180 ) ;
#104 = CIRCLE ( 'NONE', #218, 12.00000000000000000 ) ;
#105 = CC_DESIGN_PERSON_AND_ORGANIZATION_ASSIGNMENT ( #36, #184, ( #160 ) ) ;
#106 = FACE_OUTER_BOUND ( 'NONE', #236, .T. ) ;
#107 = LINE ( 'NONE', #140, #155 ) ;
#108 = DIRECTION ( 'NONE',  ( -0.000000000000000000, 1.000000000000000000, -0.000000000000000000 ) ) ;
#109 = LINE ( 'NONE', #29, #99 ) ;
#110 = CARTESIAN_POINT ( 'NONE',  ( 0.000000000000000000, 0.000000000000000000, 12.00000000000000000 ) ) ;
#111 = PRODUCT_DEFINITION_SHAPE ( 'NONE', 'NONE',  #170 ) ;
#112 = AXIS2_PLACEMENT_3D ( 'NONE', #241, #26, #49 ) ;
#113 = LOCAL_TIME ( 16, 3, 5.000000000000000000, #93 ) ;
#114 = CALENDAR_DATE ( 2026, 4, 1 ) ;
#115 = DATE_AND_TIME ( #114, #113 ) ;
#116 = DIRECTION ( 'NONE',  ( 0.000000000000000000, 0.000000000000000000, 1.000000000000000000 ) ) ;
#117 = AXIS2_PLACEMENT_3D ( 'NONE', #7, #141, #224 ) ;
#118 = APPROVAL_DATE_TIME ( #228, #120 ) ;
#119 = ORIENTED_EDGE ( 'NONE', *, *, #135, .F. ) ;
#120 = APPROVAL ( #150, 'UNSPECIFIED' ) ;
#121 = CIRCLE ( 'NONE', #39, 12.00000000000000000 ) ;
#122 = DIRECTION ( 'NONE',  ( 0.000000000000000000, 0.000000000000000000, 1.000000000000000000 ) ) ;
#123 = ORIENTED_EDGE ( 'NONE', *, *, #90, .F. ) ;
#124 = APPROVAL_PERSON_ORGANIZATION ( #146, #151, #71 ) ;
#125 = CARTESIAN_POINT ( 'NONE',  ( 6.500000000000000000, -2.500000000000000000, 0.000000000000000000 ) ) ;
#126 = CARTESIAN_POINT ( 'NONE',  ( 0.000000000000000000, -2.500000000000000000, 6.500000000000000000 ) ) ;
#127 = CARTESIAN_POINT ( 'NONE',  ( 0.000000000000000000, 0.000000000000000000, 0.000000000000000000 ) ) ;
#128 = CYLINDRICAL_SURFACE ( 'NONE', #117, 12.00000000000000000 ) ;
#129 = CYLINDRICAL_SURFACE ( 'NONE', #240, 6.500000000000000000 ) ;
#130 = PERSON_AND_ORGANIZATION ( #206, #166 ) ;
#131 = CIRCLE ( 'NONE', #156, 12.00000000000000000 ) ;
#132 = CALENDAR_DATE ( 2026, 4, 1 ) ;
#133 = PERSON_AND_ORGANIZATION_ROLE ( 'classification_officer' ) ;
#134 = AXIS2_PLACEMENT_3D ( 'NONE', #125, #199, #201 ) ;
#135 = EDGE_CURVE ( 'NONE', #195, #2, #174, .T. ) ;
#136 = ORIENTED_EDGE ( 'NONE', *, *, #90, .T. ) ;
#137 = EDGE_LOOP ( 'NONE', ( #20, #24, #159, #192 ) ) ;
#138 = CC_DESIGN_APPROVAL ( #94, ( #8 ) ) ;
#139 = ORIENTED_EDGE ( 'NONE', *, *, #77, .T. ) ;
#140 = CARTESIAN_POINT ( 'NONE',  ( 0.000000000000000000, 0.000000000000000000, 6.500000000000000000 ) ) ;
#141 = DIRECTION ( 'NONE',  ( -0.000000000000000000, 1.000000000000000000, -0.000000000000000000 ) ) ;
#142 = CARTESIAN_POINT ( 'NONE',  ( 0.000000000000000000, -2.500000000000000000, 0.000000000000000000 ) ) ;
#143 = PLANE ( 'NONE',  #134 ) ;
#144 = EDGE_CURVE ( 'NONE', #175, #103, #107, .T. ) ;
#145 = DIRECTION ( 'NONE',  ( 0.000000000000000000, 0.000000000000000000, 1.000000000000000000 ) ) ;
#146 = PERSON_AND_ORGANIZATION ( #206, #166 ) ;
#147 = PERSON_AND_ORGANIZATION_ROLE ( 'creator' ) ;
#148 = CC_DESIGN_SECURITY_CLASSIFICATION ( #231, ( #8 ) ) ;
#149 = PERSON_AND_ORGANIZATION_ROLE ( 'design_supplier' ) ;
#150 = APPROVAL_STATUS ( 'not_yet_approved' ) ;
#151 = APPROVAL ( #185, 'UNSPECIFIED' ) ;
#152 = ORIENTED_EDGE ( 'NONE', *, *, #89, .F. ) ;
#153 = DIRECTION ( 'NONE',  ( 0.000000000000000000, 0.000000000000000000, 1.000000000000000000 ) ) ;
#154 = ORIENTED_EDGE ( 'NONE', *, *, #135, .T. ) ;
#155 = VECTOR ( 'NONE', #87, 1000.000000000000000 ) ;
#156 = AXIS2_PLACEMENT_3D ( 'NONE', #165, #45, #88 ) ;
#157 = CARTESIAN_POINT ( 'NONE',  ( 0.000000000000000000, -2.500000000000000000, 0.000000000000000000 ) ) ;
#158 = ADVANCED_FACE ( 'NONE', ( #200, #106 ), #220, .F. ) ;
#159 = ORIENTED_EDGE ( 'NONE', *, *, #144, .T. ) ;
#160 = PRODUCT ( 'M12 FLAT WASHER_REV_', 'M12 FLAT WASHER_REV_', '', ( #229 ) ) ;
#161 = CYLINDRICAL_SURFACE ( 'NONE', #112, 6.500000000000000000 ) ;
#162 = DIRECTION ( 'NONE',  ( -0.000000000000000000, 1.000000000000000000, -0.000000000000000000 ) ) ;
#163 = CARTESIAN_POINT ( 'NONE',  ( 0.000000000000000000, -2.500000000000000000, 12.00000000000000000 ) ) ;
#164 = FACE_OUTER_BOUND ( 'NONE', #137, .T. ) ;
#165 = CARTESIAN_POINT ( 'NONE',  ( 0.000000000000000000, 0.000000000000000000, 0.000000000000000000 ) ) ;
#166 = ORGANIZATION ( 'UNSPECIFIED', 'UNSPECIFIED', '' ) ;
#167 = DATE_TIME_ROLE ( 'creation_date' ) ;
#168 = DATE_AND_TIME ( #32, #190 ) ;
#169 = APPROVAL_STATUS ( 'not_yet_approved' ) ;
#170 = PRODUCT_DEFINITION ( 'UNKNOWN', '', #8, #63 ) ;
#171 = COORDINATED_UNIVERSAL_TIME_OFFSET ( 10, 0, .AHEAD. ) ;
#172 = ADVANCED_FACE ( 'NONE', ( #91 ), #129, .F. ) ;
#173 = EDGE_CURVE ( 'NONE', #3, #234, #131, .T. ) ;
#174 = CIRCLE ( 'NONE', #96, 12.00000000000000000 ) ;
#175 = VERTEX_POINT ( 'NONE', #126 ) ;
#176 = CC_DESIGN_DATE_AND_TIME_ASSIGNMENT ( #168, #226, ( #231 ) ) ;
#177 = ORIENTED_EDGE ( 'NONE', *, *, #227, .F. ) ;
#178 = VERTEX_POINT ( 'NONE', #179 ) ;
#179 = CARTESIAN_POINT ( 'NONE',  ( 7.960204194457795477E-16, -2.500000000000000000, -6.500000000000000000 ) ) ;
#180 = CARTESIAN_POINT ( 'NONE',  ( 0.000000000000000000, 0.000000000000000000, 6.500000000000000000 ) ) ;
#181 = AXIS2_PLACEMENT_3D ( 'NONE', #183, #69, #145 ) ;
#182 = DIRECTION ( 'NONE',  ( 0.000000000000000000, -1.000000000000000000, 0.000000000000000000 ) ) ;
#183 = CARTESIAN_POINT ( 'NONE',  ( 0.000000000000000000, -2.500000000000000000, 0.000000000000000000 ) ) ;
#184 = PERSON_AND_ORGANIZATION_ROLE ( 'design_owner' ) ;
#185 = APPROVAL_STATUS ( 'not_yet_approved' ) ;
#186 = CC_DESIGN_DATE_AND_TIME_ASSIGNMENT ( #115, #167, ( #170 ) ) ;
#187 = DATE_AND_TIME ( #132, #48 ) ;
#188 = DATE_AND_TIME ( #33, #197 ) ;
#189 = CIRCLE ( 'NONE', #34, 6.500000000000000000 ) ;
#190 = LOCAL_TIME ( 16, 3, 5.000000000000000000, #95 ) ;
#191 = SHAPE_DEFINITION_REPRESENTATION ( #111, #101 ) ;
#192 = ORIENTED_EDGE ( 'NONE', *, *, #221, .T. ) ;
#193 = ORIENTED_EDGE ( 'NONE', *, *, #144, .F. ) ;
#194 = CARTESIAN_POINT ( 'NONE',  ( 1.469576158976823947E-15, 0.000000000000000000, -12.00000000000000000 ) ) ;
#195 = VERTEX_POINT ( 'NONE', #163 ) ;
#196 = CIRCLE ( 'NONE', #92, 6.500000000000000000 ) ;
#197 = LOCAL_TIME ( 16, 3, 5.000000000000000000, #249 ) ;
#198 = EDGE_LOOP ( 'NONE', ( #81, #139, #79, #193 ) ) ;
#199 = DIRECTION ( 'NONE',  ( -0.000000000000000000, 1.000000000000000000, 0.000000000000000000 ) ) ;
#200 = FACE_BOUND ( 'NONE', #21, .T. ) ;
#201 = DIRECTION ( 'NONE',  ( 0.000000000000000000, 0.000000000000000000, 1.000000000000000000 ) ) ;
#202 = LOCAL_TIME ( 16, 3, 5.000000000000000000, #171 ) ;
#203 = DIRECTION ( 'NONE',  ( 0.000000000000000000, 0.000000000000000000, 1.000000000000000000 ) ) ;
#204 = MANIFOLD_SOLID_BREP ( 'Revolve', #208 ) ;
#205 = DIRECTION ( 'NONE',  ( 0.000000000000000000, 0.000000000000000000, 1.000000000000000000 ) ) ;
#206 = PERSON ( 'UNSPECIFIED', 'UNSPECIFIED', 'UNSPECIFIED', ('UNSPECIFIED'), ('UNSPECIFIED'), ('UNSPECIFIED') ) ;
#207 = SECURITY_CLASSIFICATION_LEVEL ( 'unclassified' ) ;
#208 = CLOSED_SHELL ( 'NONE', ( #98, #172, #44, #237, #11, #158 ) ) ;
#209 =( NAMED_UNIT ( * ) PLANE_ANGLE_UNIT ( ) SI_UNIT ( $, .RADIAN. ) );
#210 = DIRECTION ( 'NONE',  ( 1.000000000000000000, 0.000000000000000000, 0.000000000000000000 ) ) ;
#211 = AXIS2_PLACEMENT_3D ( 'NONE', #78, #100, #153 ) ;
#212 = ORIENTED_EDGE ( 'NONE', *, *, #248, .T. ) ;
#213 = DIRECTION ( 'NONE',  ( -0.000000000000000000, 1.000000000000000000, -0.000000000000000000 ) ) ;
#214 = CC_DESIGN_APPROVAL ( #151, ( #170 ) ) ;
#215 = ORIENTED_EDGE ( 'NONE', *, *, #221, .F. ) ;
#216 = CARTESIAN_POINT ( 'NONE',  ( 7.960204194457795477E-16, 0.000000000000000000, -6.500000000000000000 ) ) ;
#217 = ORIENTED_EDGE ( 'NONE', *, *, #173, .F. ) ;
#218 = AXIS2_PLACEMENT_3D ( 'NONE', #157, #213, #102 ) ;
#219 = CARTESIAN_POINT ( 'NONE',  ( 7.960204194457795477E-16, 0.000000000000000000, -6.500000000000000000 ) ) ;
#220 = PLANE ( 'NONE',  #235 ) ;
#221 = EDGE_CURVE ( 'NONE', #103, #41, #18, .T. ) ;
#222 = DIRECTION ( 'NONE',  ( 0.000000000000000000, 0.000000000000000000, 1.000000000000000000 ) ) ;
#223 = LINE ( 'NONE', #219, #42 ) ;
#224 = DIRECTION ( 'NONE',  ( 0.000000000000000000, 0.000000000000000000, 1.000000000000000000 ) ) ;
#225 = APPROVAL_DATE_TIME ( #188, #151 ) ;
#226 = DATE_TIME_ROLE ( 'classification_date' ) ;
#227 = EDGE_CURVE ( 'NONE', #41, #103, #189, .T. ) ;
#228 = DATE_AND_TIME ( #74, #202 ) ;
#229 = MECHANICAL_CONTEXT ( 'NONE', #60, 'mechanical' ) ;
#230 = AXIS2_PLACEMENT_3D ( 'NONE', #247, #116, #210 ) ;
#231 = SECURITY_CLASSIFICATION ( '', '', #207 ) ;
#232 = ORIENTED_EDGE ( 'NONE', *, *, #31, .F. ) ;
#233 = CARTESIAN_POINT ( 'NONE',  ( 0.000000000000000000, -2.500000000000000000, 0.000000000000000000 ) ) ;
#234 = VERTEX_POINT ( 'NONE', #110 ) ;
#235 = AXIS2_PLACEMENT_3D ( 'NONE', #10, #182, #50 ) ;
#236 = EDGE_LOOP ( 'NONE', ( #83, #76 ) ) ;
#237 = ADVANCED_FACE ( 'NONE', ( #86, #43 ), #143, .F. ) ;
#238 = EDGE_LOOP ( 'NONE', ( #5, #61 ) ) ;
#239 = CARTESIAN_POINT ( 'NONE',  ( 0.000000000000000000, 0.000000000000000000, 0.000000000000000000 ) ) ;
#240 = AXIS2_PLACEMENT_3D ( 'NONE', #127, #162, #9 ) ;
#241 = CARTESIAN_POINT ( 'NONE',  ( 0.000000000000000000, 0.000000000000000000, 0.000000000000000000 ) ) ;
#242 = APPLICATION_CONTEXT ( 'configuration controlled 3d designs of mechanical parts and assemblies' ) ;
#243 = CARTESIAN_POINT ( 'NONE',  ( 0.000000000000000000, 0.000000000000000000, 0.000000000000000000 ) ) ;
#244 = FACE_OUTER_BOUND ( 'NONE', #59, .T. ) ;
#245 = DIRECTION ( 'NONE',  ( 0.000000000000000000, 0.000000000000000000, 1.000000000000000000 ) ) ;
#246 = PERSON_AND_ORGANIZATION ( #206, #166 ) ;
#247 = CARTESIAN_POINT ( 'NONE',  ( 0.000000000000000000, 0.000000000000000000, 0.000000000000000000 ) ) ;
#248 = EDGE_CURVE ( 'NONE', #2, #3, #25, .T. ) ;
#249 = COORDINATED_UNIVERSAL_TIME_OFFSET ( 10, 0, .AHEAD. ) ;
ENDSEC;
END-ISO-10303-21;
