ISO-10303-21;
HEADER;
FILE_DESCRIPTION (( 'STEP AP203' ),
    '1' );
FILE_NAME ('M12 FW 304_REV_.step',
    '2026-03-04T03:09:08',
    ( '' ),
    ( '' ),
    'SwSTEP 2.0',
    'SolidWorks 2025',
    '' );
FILE_SCHEMA (( 'CONFIG_CONTROL_DESIGN' ));
ENDSEC;

DATA;
#1 = CALENDAR_DATE ( 2026, 4, 3 ) ;
#2 = DIRECTION ( 'NONE',  ( -0.000000000000000000, 1.000000000000000000, -0.000000000000000000 ) ) ;
#3 = PERSON_AND_ORGANIZATION ( #161, #179 ) ;
#4 = CIRCLE ( 'NONE', #226, 6.500000000000000000 ) ;
#5 = APPLICATION_PROTOCOL_DEFINITION ( 'international standard', 'config_control_design', 1994, #243 ) ;
#6 = CARTESIAN_POINT ( 'NONE',  ( 0.000000000000000000, 0.000000000000000000, 0.000000000000000000 ) ) ;
#7 = EDGE_LOOP ( 'NONE', ( #178, #83 ) ) ;
#8 = EDGE_LOOP ( 'NONE', ( #120, #237 ) ) ;
#9 = CARTESIAN_POINT ( 'NONE',  ( 0.000000000000000000, -1.500000000000000000, 0.000000000000000000 ) ) ;
#10 = DIRECTION ( 'NONE',  ( 0.000000000000000000, 0.000000000000000000, 1.000000000000000000 ) ) ;
#11 = EDGE_CURVE ( 'NONE', #158, #68, #175, .T. ) ;
#12 = DIRECTION ( 'NONE',  ( 0.000000000000000000, -1.000000000000000000, 0.000000000000000000 ) ) ;
#13 = DIRECTION ( 'NONE',  ( -0.000000000000000000, 1.000000000000000000, -0.000000000000000000 ) ) ;
#14 = CIRCLE ( 'NONE', #201, 12.00000000000000000 ) ;
#15 = DIRECTION ( 'NONE',  ( -0.000000000000000000, 1.000000000000000000, -0.000000000000000000 ) ) ;
#16 = ORIENTED_EDGE ( 'NONE', *, *, #153, .F. ) ;
#17 = DIRECTION ( 'NONE',  ( 1.000000000000000000, 0.000000000000000000, 0.000000000000000000 ) ) ;
#18 = DATE_AND_TIME ( #37, #221 ) ;
#19 = ADVANCED_FACE ( 'NONE', ( #238 ), #59, .T. ) ;
#20 = PERSON_AND_ORGANIZATION_ROLE ( 'design_supplier' ) ;
#21 = PERSON_AND_ORGANIZATION ( #161, #179 ) ;
#22 = AXIS2_PLACEMENT_3D ( 'NONE', #185, #146, #10 ) ;
#23 = LOCAL_TIME ( 14, 9, 8.000000000000000000, #152 ) ;
#24 = VERTEX_POINT ( 'NONE', #78 ) ;
#25 = APPROVAL ( #195, 'UNSPECIFIED' ) ;
#26 = AXIS2_PLACEMENT_3D ( 'NONE', #222, #206, #205 ) ;
#27 = DIRECTION ( 'NONE',  ( -0.000000000000000000, 1.000000000000000000, 0.000000000000000000 ) ) ;
#28 = CARTESIAN_POINT ( 'NONE',  ( 6.500000000000000000, 0.000000000000000000, 0.000000000000000000 ) ) ;
#29 = CARTESIAN_POINT ( 'NONE',  ( 0.000000000000000000, -1.500000000000000000, 6.500000000000000000 ) ) ;
#30 = APPLICATION_CONTEXT ( 'configuration controlled 3d designs of mechanical parts and assemblies' ) ;
#31 = CARTESIAN_POINT ( 'NONE',  ( 0.000000000000000000, 0.000000000000000000, 0.000000000000000000 ) ) ;
#32 = FACE_BOUND ( 'NONE', #176, .T. ) ;
#33 = AXIS2_PLACEMENT_3D ( 'NONE', #110, #182, #126 ) ;
#34 = PRODUCT_DEFINITION_SHAPE ( 'NONE', 'NONE',  #134 ) ;
#35 = CC_DESIGN_APPROVAL ( #103, ( #111 ) ) ;
#36 = ADVANCED_FACE ( 'NONE', ( #155, #199 ), #62, .F. ) ;
#37 = CALENDAR_DATE ( 2026, 4, 3 ) ;
#38 = PERSON_AND_ORGANIZATION_ROLE ( 'creator' ) ;
#39 = COORDINATED_UNIVERSAL_TIME_OFFSET ( 10, 0, .AHEAD. ) ;
#40 = APPROVAL_DATE_TIME ( #177, #103 ) ;
#41 = ORIENTED_EDGE ( 'NONE', *, *, #125, .F. ) ;
#42 = VERTEX_POINT ( 'NONE', #124 ) ;
#43 = PLANE ( 'NONE',  #63 ) ;
#44 = CARTESIAN_POINT ( 'NONE',  ( 0.000000000000000000, 0.000000000000000000, 12.00000000000000000 ) ) ;
#45 = CARTESIAN_POINT ( 'NONE',  ( 7.960204194457795477E-16, 0.000000000000000000, -6.500000000000000000 ) ) ;
#46 = DIRECTION ( 'NONE',  ( 0.000000000000000000, 0.000000000000000000, 1.000000000000000000 ) ) ;
#47 = VERTEX_POINT ( 'NONE', #45 ) ;
#48 = CARTESIAN_POINT ( 'NONE',  ( 0.000000000000000000, -1.500000000000000222, 0.000000000000000000 ) ) ;
#49 = EDGE_LOOP ( 'NONE', ( #41, #16, #210, #218 ) ) ;
#50 = APPROVAL_STATUS ( 'not_yet_approved' ) ;
#51 = APPROVAL_DATE_TIME ( #154, #86 ) ;
#52 = APPROVAL_DATE_TIME ( #18, #25 ) ;
#53 = CIRCLE ( 'NONE', #235, 12.00000000000000000 ) ;
#54 = MECHANICAL_CONTEXT ( 'NONE', #243, 'mechanical' ) ;
#55 = APPLICATION_PROTOCOL_DEFINITION ( 'international standard', 'config_control_design', 1994, #30 ) ;
#56 = AXIS2_PLACEMENT_3D ( 'NONE', #145, #27, #186 ) ;
#57 = CIRCLE ( 'NONE', #89, 6.500000000000000000 ) ;
#58 = PRODUCT_DEFINITION_FORMATION_WITH_SPECIFIED_SOURCE ( 'ANY', '', #188, .NOT_KNOWN. ) ;
#59 = CYLINDRICAL_SURFACE ( 'NONE', #132, 12.00000000000000000 ) ;
#60 = LOCAL_TIME ( 14, 9, 8.000000000000000000, #74 ) ;
#61 = DIRECTION ( 'NONE',  ( 0.000000000000000000, 0.000000000000000000, 1.000000000000000000 ) ) ;
#62 = PLANE ( 'NONE',  #56 ) ;
#63 = AXIS2_PLACEMENT_3D ( 'NONE', #28, #12, #204 ) ;
#64 = DIRECTION ( 'NONE',  ( 0.000000000000000000, 0.000000000000000000, 1.000000000000000000 ) ) ;
#65 = LOCAL_TIME ( 14, 9, 8.000000000000000000, #39 ) ;
#66 = FACE_OUTER_BOUND ( 'NONE', #127, .T. ) ;
#67 = CARTESIAN_POINT ( 'NONE',  ( 0.000000000000000000, -1.500000000000000000, 0.000000000000000000 ) ) ;
#68 = VERTEX_POINT ( 'NONE', #44 ) ;
#69 = APPROVAL_ROLE ( '' ) ;
#70 = APPROVAL_PERSON_ORGANIZATION ( #3, #25, #209 ) ;
#71 = EDGE_CURVE ( 'NONE', #42, #47, #214, .T. ) ;
#72 = APPROVAL_ROLE ( '' ) ;
#73 = DIRECTION ( 'NONE',  ( 0.000000000000000000, 0.000000000000000000, 1.000000000000000000 ) ) ;
#74 = COORDINATED_UNIVERSAL_TIME_OFFSET ( 10, 0, .AHEAD. ) ;
#75 = AXIS2_PLACEMENT_3D ( 'NONE', #168, #163, #190 ) ;
#76 = CC_DESIGN_APPROVAL ( #86, ( #58 ) ) ;
#77 = PERSON_AND_ORGANIZATION ( #161, #179 ) ;
#78 = CARTESIAN_POINT ( 'NONE',  ( 1.469576158976823947E-15, -1.500000000000000222, -12.00000000000000000 ) ) ;
#79 = CARTESIAN_POINT ( 'NONE',  ( 0.000000000000000000, 0.000000000000000000, 12.00000000000000000 ) ) ;
#80 = ADVANCED_FACE ( 'NONE', ( #141 ), #87, .F. ) ;
#81 = ORIENTED_EDGE ( 'NONE', *, *, #142, .F. ) ;
#82 = ORIENTED_EDGE ( 'NONE', *, *, #242, .T. ) ;
#83 = ORIENTED_EDGE ( 'NONE', *, *, #142, .T. ) ;
#84 = ADVANCED_FACE ( 'NONE', ( #219 ), #164, .T. ) ;
#85 = CARTESIAN_POINT ( 'NONE',  ( 1.469576158976823947E-15, 0.000000000000000000, -12.00000000000000000 ) ) ;
#86 = APPROVAL ( #114, 'UNSPECIFIED' ) ;
#87 = CYLINDRICAL_SURFACE ( 'NONE', #75, 6.500000000000000000 ) ;
#88 = DIRECTION ( 'NONE',  ( -0.000000000000000000, 1.000000000000000000, -0.000000000000000000 ) ) ;
#89 = AXIS2_PLACEMENT_3D ( 'NONE', #67, #241, #208 ) ;
#90 = AXIS2_PLACEMENT_3D ( 'NONE', #197, #73, #17 ) ;
#91 = CARTESIAN_POINT ( 'NONE',  ( 7.960204194457795477E-16, 0.000000000000000000, -6.500000000000000000 ) ) ;
#92 = LINE ( 'NONE', #225, #194 ) ;
#93 = VERTEX_POINT ( 'NONE', #85 ) ;
#94 = CARTESIAN_POINT ( 'NONE',  ( 1.469576158976823947E-15, 0.000000000000000000, -12.00000000000000000 ) ) ;
#95 = VECTOR ( 'NONE', #88, 1000.000000000000000 ) ;
#96 = CALENDAR_DATE ( 2026, 4, 3 ) ;
#97 = DATE_AND_TIME ( #1, #239 ) ;
#98 = VERTEX_POINT ( 'NONE', #29 ) ;
#99 = SHAPE_DEFINITION_REPRESENTATION ( #34, #171 ) ;
#100 = ORIENTED_EDGE ( 'NONE', *, *, #109, .T. ) ;
#101 = EDGE_CURVE ( 'NONE', #129, #98, #57, .T. ) ;
#102 = ORIENTED_EDGE ( 'NONE', *, *, #125, .T. ) ;
#103 = APPROVAL ( #50, 'UNSPECIFIED' ) ;
#104 = ORIENTED_EDGE ( 'NONE', *, *, #215, .F. ) ;
#105 = CC_DESIGN_PERSON_AND_ORGANIZATION_ASSIGNMENT ( #211, #38, ( #58 ) ) ;
#106 = LINE ( 'NONE', #94, #184 ) ;
#107 = CYLINDRICAL_SURFACE ( 'NONE', #22, 6.500000000000000000 ) ;
#108 = DIRECTION ( 'NONE',  ( -0.000000000000000000, 1.000000000000000000, -0.000000000000000000 ) ) ;
#109 = EDGE_CURVE ( 'NONE', #47, #42, #150, .T. ) ;
#110 = CARTESIAN_POINT ( 'NONE',  ( 0.000000000000000000, 0.000000000000000000, 0.000000000000000000 ) ) ;
#111 = SECURITY_CLASSIFICATION ( '', '', #151 ) ;
#112 = DIRECTION ( 'NONE',  ( 0.000000000000000000, 0.000000000000000000, 1.000000000000000000 ) ) ;
#113 = ORIENTED_EDGE ( 'NONE', *, *, #223, .F. ) ;
#114 = APPROVAL_STATUS ( 'not_yet_approved' ) ;
#115 = COORDINATED_UNIVERSAL_TIME_OFFSET ( 10, 0, .AHEAD. ) ;
#116 = PERSON_AND_ORGANIZATION_ROLE ( 'creator' ) ;
#117 = ADVANCED_FACE ( 'NONE', ( #32, #143 ), #43, .F. ) ;
#118 = ORIENTED_EDGE ( 'NONE', *, *, #247, .F. ) ;
#119 = DIRECTION ( 'NONE',  ( -0.000000000000000000, 1.000000000000000000, -0.000000000000000000 ) ) ;
#120 = ORIENTED_EDGE ( 'NONE', *, *, #153, .T. ) ;
#121 = APPROVAL_PERSON_ORGANIZATION ( #213, #86, #69 ) ;
#122 = CARTESIAN_POINT ( 'NONE',  ( 0.000000000000000000, -1.500000000000000222, 0.000000000000000000 ) ) ;
#123 = APPROVAL_PERSON_ORGANIZATION ( #192, #103, #72 ) ;
#124 = CARTESIAN_POINT ( 'NONE',  ( 0.000000000000000000, 0.000000000000000000, 6.500000000000000000 ) ) ;
#125 = EDGE_CURVE ( 'NONE', #129, #47, #220, .T. ) ;
#126 = DIRECTION ( 'NONE',  ( 0.000000000000000000, 0.000000000000000000, 1.000000000000000000 ) ) ;
#127 = EDGE_LOOP ( 'NONE', ( #191, #102, #100, #113 ) ) ;
#128 = DIRECTION ( 'NONE',  ( -0.000000000000000000, 1.000000000000000000, -0.000000000000000000 ) ) ;
#129 = VERTEX_POINT ( 'NONE', #246 ) ;
#130 =( LENGTH_UNIT ( ) NAMED_UNIT ( * ) SI_UNIT ( .MILLI., .METRE. ) );
#131 = PERSON_AND_ORGANIZATION_ROLE ( 'design_owner' ) ;
#132 = AXIS2_PLACEMENT_3D ( 'NONE', #6, #137, #140 ) ;
#133 = DATE_AND_TIME ( #96, #60 ) ;
#134 = PRODUCT_DEFINITION ( 'UNKNOWN', '', #58, #207 ) ;
#135 = CC_DESIGN_APPROVAL ( #25, ( #134 ) ) ;
#136 = ORIENTED_EDGE ( 'NONE', *, *, #71, .F. ) ;
#137 = DIRECTION ( 'NONE',  ( -0.000000000000000000, 1.000000000000000000, -0.000000000000000000 ) ) ;
#138 = ORIENTED_EDGE ( 'NONE', *, *, #109, .F. ) ;
#139 = CIRCLE ( 'NONE', #156, 12.00000000000000000 ) ;
#140 = DIRECTION ( 'NONE',  ( 0.000000000000000000, 0.000000000000000000, 1.000000000000000000 ) ) ;
#141 = FACE_OUTER_BOUND ( 'NONE', #49, .T. ) ;
#142 = EDGE_CURVE ( 'NONE', #93, #68, #166, .T. ) ;
#143 = FACE_OUTER_BOUND ( 'NONE', #7, .T. ) ;
#144 = CLOSED_SHELL ( 'NONE', ( #19, #193, #80, #36, #84, #117 ) ) ;
#145 = CARTESIAN_POINT ( 'NONE',  ( 6.500000000000000000, -1.500000000000000000, 0.000000000000000000 ) ) ;
#146 = DIRECTION ( 'NONE',  ( -0.000000000000000000, 1.000000000000000000, -0.000000000000000000 ) ) ;
#147 = CARTESIAN_POINT ( 'NONE',  ( 0.000000000000000000, 0.000000000000000000, 0.000000000000000000 ) ) ;
#148 = UNCERTAINTY_MEASURE_WITH_UNIT (LENGTH_MEASURE( 1.000000000000000082E-05 ), #130, 'distance_accuracy_value', 'NONE');
#149 = EDGE_LOOP ( 'NONE', ( #82, #157, #104, #248 ) ) ;
#150 = CIRCLE ( 'NONE', #183, 6.500000000000000000 ) ;
#151 = SECURITY_CLASSIFICATION_LEVEL ( 'unclassified' ) ;
#152 = COORDINATED_UNIVERSAL_TIME_OFFSET ( 10, 0, .AHEAD. ) ;
#153 = EDGE_CURVE ( 'NONE', #98, #129, #4, .T. ) ;
#154 = DATE_AND_TIME ( #196, #65 ) ;
#155 = FACE_OUTER_BOUND ( 'NONE', #217, .T. ) ;
#156 = AXIS2_PLACEMENT_3D ( 'NONE', #224, #15, #46 ) ;
#157 = ORIENTED_EDGE ( 'NONE', *, *, #247, .T. ) ;
#158 = VERTEX_POINT ( 'NONE', #160 ) ;
#159 = ORIENTED_EDGE ( 'NONE', *, *, #162, .T. ) ;
#160 = CARTESIAN_POINT ( 'NONE',  ( 0.000000000000000000, -1.500000000000000222, 12.00000000000000000 ) ) ;
#161 = PERSON ( 'UNSPECIFIED', 'UNSPECIFIED', 'UNSPECIFIED', ('UNSPECIFIED'), ('UNSPECIFIED'), ('UNSPECIFIED') ) ;
#162 = EDGE_CURVE ( 'NONE', #24, #158, #53, .T. ) ;
#163 = DIRECTION ( 'NONE',  ( -0.000000000000000000, 1.000000000000000000, -0.000000000000000000 ) ) ;
#164 = CYLINDRICAL_SURFACE ( 'NONE', #26, 12.00000000000000000 ) ;
#165 = VECTOR ( 'NONE', #119, 1000.000000000000000 ) ;
#166 = CIRCLE ( 'NONE', #231, 12.00000000000000000 ) ;
#167 = DIRECTION ( 'NONE',  ( -0.000000000000000000, 1.000000000000000000, -0.000000000000000000 ) ) ;
#168 = CARTESIAN_POINT ( 'NONE',  ( 0.000000000000000000, 0.000000000000000000, 0.000000000000000000 ) ) ;
#169 = ORIENTED_EDGE ( 'NONE', *, *, #162, .F. ) ;
#170 = PRODUCT_RELATED_PRODUCT_CATEGORY ( 'detail', '', ( #188 ) ) ;
#171 = ADVANCED_BREP_SHAPE_REPRESENTATION ( 'M12 FW 304_REV_', ( #236, #90 ), #189 ) ;
#172 = CC_DESIGN_SECURITY_CLASSIFICATION ( #111, ( #58 ) ) ;
#173 = DATE_TIME_ROLE ( 'creation_date' ) ;
#174 = DATE_TIME_ROLE ( 'classification_date' ) ;
#175 = LINE ( 'NONE', #79, #165 ) ;
#176 = EDGE_LOOP ( 'NONE', ( #136, #138 ) ) ;
#177 = DATE_AND_TIME ( #229, #23 ) ;
#178 = ORIENTED_EDGE ( 'NONE', *, *, #215, .T. ) ;
#179 = ORGANIZATION ( 'UNSPECIFIED', 'UNSPECIFIED', '' ) ;
#180 = CC_DESIGN_PERSON_AND_ORGANIZATION_ASSIGNMENT ( #77, #131, ( #188 ) ) ;
#181 = CC_DESIGN_PERSON_AND_ORGANIZATION_ASSIGNMENT ( #21, #20, ( #58 ) ) ;
#182 = DIRECTION ( 'NONE',  ( -0.000000000000000000, 1.000000000000000000, -0.000000000000000000 ) ) ;
#183 = AXIS2_PLACEMENT_3D ( 'NONE', #31, #108, #187 ) ;
#184 = VECTOR ( 'NONE', #2, 1000.000000000000000 ) ;
#185 = CARTESIAN_POINT ( 'NONE',  ( 0.000000000000000000, 0.000000000000000000, 0.000000000000000000 ) ) ;
#186 = DIRECTION ( 'NONE',  ( 0.000000000000000000, 0.000000000000000000, 1.000000000000000000 ) ) ;
#187 = DIRECTION ( 'NONE',  ( 0.000000000000000000, 0.000000000000000000, 1.000000000000000000 ) ) ;
#188 = PRODUCT ( 'M12 FW 304_REV_', 'M12 FW 304_REV_', '', ( #54 ) ) ;
#189 =( GEOMETRIC_REPRESENTATION_CONTEXT ( 3 ) GLOBAL_UNCERTAINTY_ASSIGNED_CONTEXT ( ( #148 ) ) GLOBAL_UNIT_ASSIGNED_CONTEXT ( ( #130, #212, #233 ) ) REPRESENTATION_CONTEXT ( 'NONE', 'WORKASPACE' ) );
#190 = DIRECTION ( 'NONE',  ( 0.000000000000000000, 0.000000000000000000, 1.000000000000000000 ) ) ;
#191 = ORIENTED_EDGE ( 'NONE', *, *, #101, .F. ) ;
#192 = PERSON_AND_ORGANIZATION ( #161, #179 ) ;
#193 = ADVANCED_FACE ( 'NONE', ( #66 ), #107, .F. ) ;
#194 = VECTOR ( 'NONE', #240, 1000.000000000000000 ) ;
#195 = APPROVAL_STATUS ( 'not_yet_approved' ) ;
#196 = CALENDAR_DATE ( 2026, 4, 3 ) ;
#197 = CARTESIAN_POINT ( 'NONE',  ( 0.000000000000000000, 0.000000000000000000, 0.000000000000000000 ) ) ;
#198 = CC_DESIGN_DATE_AND_TIME_ASSIGNMENT ( #133, #173, ( #134 ) ) ;
#199 = FACE_BOUND ( 'NONE', #8, .T. ) ;
#200 = ORIENTED_EDGE ( 'NONE', *, *, #242, .F. ) ;
#201 = AXIS2_PLACEMENT_3D ( 'NONE', #48, #128, #61 ) ;
#202 = CC_DESIGN_PERSON_AND_ORGANIZATION_ASSIGNMENT ( #249, #116, ( #134 ) ) ;
#203 = CC_DESIGN_DATE_AND_TIME_ASSIGNMENT ( #97, #174, ( #111 ) ) ;
#204 = DIRECTION ( 'NONE',  ( 0.000000000000000000, -0.000000000000000000, -1.000000000000000000 ) ) ;
#205 = DIRECTION ( 'NONE',  ( 0.000000000000000000, 0.000000000000000000, 1.000000000000000000 ) ) ;
#206 = DIRECTION ( 'NONE',  ( -0.000000000000000000, 1.000000000000000000, -0.000000000000000000 ) ) ;
#207 = DESIGN_CONTEXT ( 'detailed design', #30, 'design' ) ;
#208 = DIRECTION ( 'NONE',  ( 0.000000000000000000, 0.000000000000000000, 1.000000000000000000 ) ) ;
#209 = APPROVAL_ROLE ( '' ) ;
#210 = ORIENTED_EDGE ( 'NONE', *, *, #223, .T. ) ;
#211 = PERSON_AND_ORGANIZATION ( #161, #179 ) ;
#212 =( NAMED_UNIT ( * ) PLANE_ANGLE_UNIT ( ) SI_UNIT ( $, .RADIAN. ) );
#213 = PERSON_AND_ORGANIZATION ( #161, #179 ) ;
#214 = CIRCLE ( 'NONE', #33, 6.500000000000000000 ) ;
#215 = EDGE_CURVE ( 'NONE', #68, #93, #139, .T. ) ;
#216 = EDGE_LOOP ( 'NONE', ( #118, #159, #227, #81 ) ) ;
#217 = EDGE_LOOP ( 'NONE', ( #200, #169 ) ) ;
#218 = ORIENTED_EDGE ( 'NONE', *, *, #71, .T. ) ;
#219 = FACE_OUTER_BOUND ( 'NONE', #216, .T. ) ;
#220 = LINE ( 'NONE', #91, #95 ) ;
#221 = LOCAL_TIME ( 14, 9, 8.000000000000000000, #230 ) ;
#222 = CARTESIAN_POINT ( 'NONE',  ( 0.000000000000000000, 0.000000000000000000, 0.000000000000000000 ) ) ;
#223 = EDGE_CURVE ( 'NONE', #98, #42, #92, .T. ) ;
#224 = CARTESIAN_POINT ( 'NONE',  ( 0.000000000000000000, 0.000000000000000000, 0.000000000000000000 ) ) ;
#225 = CARTESIAN_POINT ( 'NONE',  ( 0.000000000000000000, 0.000000000000000000, 6.500000000000000000 ) ) ;
#226 = AXIS2_PLACEMENT_3D ( 'NONE', #9, #13, #112 ) ;
#227 = ORIENTED_EDGE ( 'NONE', *, *, #11, .T. ) ;
#228 = PERSON_AND_ORGANIZATION_ROLE ( 'classification_officer' ) ;
#229 = CALENDAR_DATE ( 2026, 4, 3 ) ;
#230 = COORDINATED_UNIVERSAL_TIME_OFFSET ( 10, 0, .AHEAD. ) ;
#231 = AXIS2_PLACEMENT_3D ( 'NONE', #147, #244, #64 ) ;
#232 = PERSON_AND_ORGANIZATION ( #161, #179 ) ;
#233 =( NAMED_UNIT ( * ) SI_UNIT ( $, .STERADIAN. ) SOLID_ANGLE_UNIT ( ) );
#234 = CC_DESIGN_PERSON_AND_ORGANIZATION_ASSIGNMENT ( #232, #228, ( #111 ) ) ;
#235 = AXIS2_PLACEMENT_3D ( 'NONE', #122, #167, #245 ) ;
#236 = MANIFOLD_SOLID_BREP ( 'Revolve', #144 ) ;
#237 = ORIENTED_EDGE ( 'NONE', *, *, #101, .T. ) ;
#238 = FACE_OUTER_BOUND ( 'NONE', #149, .T. ) ;
#239 = LOCAL_TIME ( 14, 9, 8.000000000000000000, #115 ) ;
#240 = DIRECTION ( 'NONE',  ( -0.000000000000000000, 1.000000000000000000, -0.000000000000000000 ) ) ;
#241 = DIRECTION ( 'NONE',  ( -0.000000000000000000, 1.000000000000000000, -0.000000000000000000 ) ) ;
#242 = EDGE_CURVE ( 'NONE', #158, #24, #14, .T. ) ;
#243 = APPLICATION_CONTEXT ( 'configuration controlled 3d designs of mechanical parts and assemblies' ) ;
#244 = DIRECTION ( 'NONE',  ( -0.000000000000000000, 1.000000000000000000, -0.000000000000000000 ) ) ;
#245 = DIRECTION ( 'NONE',  ( 0.000000000000000000, 0.000000000000000000, 1.000000000000000000 ) ) ;
#246 = CARTESIAN_POINT ( 'NONE',  ( 7.960204194457795477E-16, -1.500000000000000000, -6.500000000000000000 ) ) ;
#247 = EDGE_CURVE ( 'NONE', #24, #93, #106, .T. ) ;
#248 = ORIENTED_EDGE ( 'NONE', *, *, #11, .F. ) ;
#249 = PERSON_AND_ORGANIZATION ( #161, #179 ) ;
ENDSEC;
END-ISO-10303-21;
