ISO-10303-21;
HEADER;
FILE_DESCRIPTION (( 'STEP AP203' ),
    '1' );
FILE_NAME ('M12 FW T 304_REV_.step',
    '2026-01-09T02:50:21',
    ( '' ),
    ( '' ),
    'SwSTEP 2.0',
    'SolidWorks 2025',
    '' );
FILE_SCHEMA (( 'CONFIG_CONTROL_DESIGN' ));
ENDSEC;

DATA;
#1 = CARTESIAN_POINT ( 'NONE',  ( 0.000000000000000000, 0.000000000000000000, 0.000000000000000000 ) ) ;
#2 = EDGE_CURVE ( 'NONE', #233, #206, #91, .T. ) ;
#3 = EDGE_LOOP ( 'NONE', ( #221, #85, #169, #66 ) ) ;
#4 = EDGE_CURVE ( 'NONE', #139, #124, #151, .T. ) ;
#5 = ORIENTED_EDGE ( 'NONE', *, *, #82, .F. ) ;
#6 = DIRECTION ( 'NONE',  ( -0.000000000000000000, 1.000000000000000000, -0.000000000000000000 ) ) ;
#7 = EDGE_LOOP ( 'NONE', ( #64, #37 ) ) ;
#8 = CARTESIAN_POINT ( 'NONE',  ( 0.000000000000000000, 0.000000000000000000, 0.000000000000000000 ) ) ;
#9 = ORIENTED_EDGE ( 'NONE', *, *, #65, .T. ) ;
#10 = PERSON_AND_ORGANIZATION ( #194, #56 ) ;
#11 = DATE_AND_TIME ( #192, #118 ) ;
#12 = VERTEX_POINT ( 'NONE', #34 ) ;
#13 = VECTOR ( 'NONE', #39, 1000.000000000000000 ) ;
#14 = DATE_AND_TIME ( #33, #227 ) ;
#15 = FACE_OUTER_BOUND ( 'NONE', #32, .T. ) ;
#16 = COORDINATED_UNIVERSAL_TIME_OFFSET ( 10, 0, .AHEAD. ) ;
#17 = CARTESIAN_POINT ( 'NONE',  ( 0.000000000000000000, -2.500000000000000000, 0.000000000000000000 ) ) ;
#18 = PLANE ( 'NONE',  #175 ) ;
#19 =( GEOMETRIC_REPRESENTATION_CONTEXT ( 3 ) GLOBAL_UNCERTAINTY_ASSIGNED_CONTEXT ( ( #135 ) ) GLOBAL_UNIT_ASSIGNED_CONTEXT ( ( #196, #232, #47 ) ) REPRESENTATION_CONTEXT ( 'NONE', 'WORKASPACE' ) );
#20 = EDGE_LOOP ( 'NONE', ( #178, #149 ) ) ;
#21 = CARTESIAN_POINT ( 'NONE',  ( 0.000000000000000000, -2.500000000000000000, 12.00000000000000000 ) ) ;
#22 = PERSON_AND_ORGANIZATION ( #194, #56 ) ;
#23 = FACE_OUTER_BOUND ( 'NONE', #3, .T. ) ;
#24 = DIRECTION ( 'NONE',  ( 0.000000000000000000, 0.000000000000000000, 1.000000000000000000 ) ) ;
#25 = AXIS2_PLACEMENT_3D ( 'NONE', #17, #115, #166 ) ;
#26 = LINE ( 'NONE', #84, #160 ) ;
#27 = AXIS2_PLACEMENT_3D ( 'NONE', #95, #170, #38 ) ;
#28 = APPLICATION_PROTOCOL_DEFINITION ( 'international standard', 'config_control_design', 1994, #98 ) ;
#29 = EDGE_CURVE ( 'NONE', #206, #83, #152, .T. ) ;
#30 = ORIENTED_EDGE ( 'NONE', *, *, #210, .T. ) ;
#31 = DATE_AND_TIME ( #90, #172 ) ;
#32 = EDGE_LOOP ( 'NONE', ( #5, #181, #69, #58 ) ) ;
#33 = CALENDAR_DATE ( 2026, 9, 1 ) ;
#34 = CARTESIAN_POINT ( 'NONE',  ( 0.000000000000000000, 0.000000000000000000, 12.00000000000000000 ) ) ;
#35 = AXIS2_PLACEMENT_3D ( 'NONE', #1, #134, #211 ) ;
#36 = SHAPE_DEFINITION_REPRESENTATION ( #190, #104 ) ;
#37 = ORIENTED_EDGE ( 'NONE', *, *, #4, .F. ) ;
#38 = DIRECTION ( 'NONE',  ( 0.000000000000000000, 0.000000000000000000, 1.000000000000000000 ) ) ;
#39 = DIRECTION ( 'NONE',  ( -0.000000000000000000, 1.000000000000000000, -0.000000000000000000 ) ) ;
#40 = CC_DESIGN_DATE_AND_TIME_ASSIGNMENT ( #14, #245, ( #122 ) ) ;
#41 = CC_DESIGN_PERSON_AND_ORGANIZATION_ASSIGNMENT ( #180, #108, ( #182 ) ) ;
#42 = DIRECTION ( 'NONE',  ( 0.000000000000000000, -0.000000000000000000, -1.000000000000000000 ) ) ;
#43 = AXIS2_PLACEMENT_3D ( 'NONE', #59, #117, #44 ) ;
#44 = DIRECTION ( 'NONE',  ( 0.000000000000000000, 0.000000000000000000, 1.000000000000000000 ) ) ;
#45 = ADVANCED_FACE ( 'NONE', ( #141, #129 ), #238, .F. ) ;
#46 = CC_DESIGN_SECURITY_CLASSIFICATION ( #122, ( #167 ) ) ;
#47 =( NAMED_UNIT ( * ) SI_UNIT ( $, .STERADIAN. ) SOLID_ANGLE_UNIT ( ) );
#48 = EDGE_LOOP ( 'NONE', ( #186, #158 ) ) ;
#49 = CARTESIAN_POINT ( 'NONE',  ( 0.000000000000000000, -2.500000000000000000, 0.000000000000000000 ) ) ;
#50 = MANIFOLD_SOLID_BREP ( 'Revolve', #214 ) ;
#51 = CIRCLE ( 'NONE', #236, 12.00000000000000000 ) ;
#52 = PERSON_AND_ORGANIZATION_ROLE ( 'creator' ) ;
#53 = CARTESIAN_POINT ( 'NONE',  ( 0.000000000000000000, 0.000000000000000000, 0.000000000000000000 ) ) ;
#54 = PERSON_AND_ORGANIZATION_ROLE ( 'creator' ) ;
#55 = ORIENTED_EDGE ( 'NONE', *, *, #204, .F. ) ;
#56 = ORGANIZATION ( 'UNSPECIFIED', 'UNSPECIFIED', '' ) ;
#57 = DIRECTION ( 'NONE',  ( 0.000000000000000000, 0.000000000000000000, 1.000000000000000000 ) ) ;
#58 = ORIENTED_EDGE ( 'NONE', *, *, #2, .F. ) ;
#59 = CARTESIAN_POINT ( 'NONE',  ( 0.000000000000000000, 0.000000000000000000, 0.000000000000000000 ) ) ;
#60 = APPROVAL_PERSON_ORGANIZATION ( #22, #121, #143 ) ;
#61 = ADVANCED_FACE ( 'NONE', ( #15 ), #191, .F. ) ;
#62 = CIRCLE ( 'NONE', #43, 12.00000000000000000 ) ;
#63 = MECHANICAL_CONTEXT ( 'NONE', #98, 'mechanical' ) ;
#64 = ORIENTED_EDGE ( 'NONE', *, *, #162, .F. ) ;
#65 = EDGE_CURVE ( 'NONE', #124, #12, #127, .T. ) ;
#66 = ORIENTED_EDGE ( 'NONE', *, *, #29, .T. ) ;
#67 = DIRECTION ( 'NONE',  ( 0.000000000000000000, 0.000000000000000000, 1.000000000000000000 ) ) ;
#68 = PERSON_AND_ORGANIZATION ( #194, #56 ) ;
#69 = ORIENTED_EDGE ( 'NONE', *, *, #216, .T. ) ;
#70 = CARTESIAN_POINT ( 'NONE',  ( 0.000000000000000000, -2.500000000000000000, 0.000000000000000000 ) ) ;
#71 = CC_DESIGN_APPROVAL ( #147, ( #123 ) ) ;
#72 = DESIGN_CONTEXT ( 'detailed design', #207, 'design' ) ;
#73 = DIRECTION ( 'NONE',  ( -0.000000000000000000, 1.000000000000000000, -0.000000000000000000 ) ) ;
#74 = DATE_AND_TIME ( #75, #80 ) ;
#75 = CALENDAR_DATE ( 2026, 9, 1 ) ;
#76 = DIRECTION ( 'NONE',  ( -0.000000000000000000, 1.000000000000000000, -0.000000000000000000 ) ) ;
#77 = CARTESIAN_POINT ( 'NONE',  ( 1.469576158976823947E-15, -2.500000000000000000, -12.00000000000000000 ) ) ;
#78 = CARTESIAN_POINT ( 'NONE',  ( 0.000000000000000000, 0.000000000000000000, 6.500000000000000000 ) ) ;
#79 = AXIS2_PLACEMENT_3D ( 'NONE', #248, #76, #153 ) ;
#80 = LOCAL_TIME ( 13, 50, 21.00000000000000000, #16 ) ;
#81 = PRODUCT_RELATED_PRODUCT_CATEGORY ( 'detail', '', ( #182 ) ) ;
#82 = EDGE_CURVE ( 'NONE', #110, #233, #243, .T. ) ;
#83 = VERTEX_POINT ( 'NONE', #148 ) ;
#84 = CARTESIAN_POINT ( 'NONE',  ( 7.960204194457795477E-16, 0.000000000000000000, -6.500000000000000000 ) ) ;
#85 = ORIENTED_EDGE ( 'NONE', *, *, #210, .F. ) ;
#86 = CC_DESIGN_PERSON_AND_ORGANIZATION_ASSIGNMENT ( #209, #52, ( #167 ) ) ;
#87 = AXIS2_PLACEMENT_3D ( 'NONE', #205, #164, #218 ) ;
#88 = ORIENTED_EDGE ( 'NONE', *, *, #4, .T. ) ;
#89 = APPLICATION_PROTOCOL_DEFINITION ( 'international standard', 'config_control_design', 1994, #207 ) ;
#90 = CALENDAR_DATE ( 2026, 9, 1 ) ;
#91 = LINE ( 'NONE', #146, #13 ) ;
#92 = CC_DESIGN_APPROVAL ( #121, ( #167 ) ) ;
#93 = COORDINATED_UNIVERSAL_TIME_OFFSET ( 10, 0, .AHEAD. ) ;
#94 = CYLINDRICAL_SURFACE ( 'NONE', #249, 12.00000000000000000 ) ;
#95 = CARTESIAN_POINT ( 'NONE',  ( 6.500000000000000000, -2.500000000000000000, 0.000000000000000000 ) ) ;
#96 = CARTESIAN_POINT ( 'NONE',  ( 6.500000000000000000, 0.000000000000000000, 0.000000000000000000 ) ) ;
#97 = CIRCLE ( 'NONE', #226, 6.500000000000000000 ) ;
#98 = APPLICATION_CONTEXT ( 'configuration controlled 3d designs of mechanical parts and assemblies' ) ;
#99 = PERSON_AND_ORGANIZATION_ROLE ( 'design_supplier' ) ;
#100 = CARTESIAN_POINT ( 'NONE',  ( 0.000000000000000000, 0.000000000000000000, 0.000000000000000000 ) ) ;
#101 = CIRCLE ( 'NONE', #231, 6.500000000000000000 ) ;
#102 = CYLINDRICAL_SURFACE ( 'NONE', #35, 12.00000000000000000 ) ;
#103 = EDGE_LOOP ( 'NONE', ( #55, #88, #9, #112 ) ) ;
#104 = ADVANCED_BREP_SHAPE_REPRESENTATION ( 'M12 FW T 304_REV_', ( #50, #179 ), #19 ) ;
#105 = CARTESIAN_POINT ( 'NONE',  ( 1.469576158976823947E-15, 0.000000000000000000, -12.00000000000000000 ) ) ;
#106 = CC_DESIGN_PERSON_AND_ORGANIZATION_ASSIGNMENT ( #10, #54, ( #123 ) ) ;
#107 = AXIS2_PLACEMENT_3D ( 'NONE', #53, #73, #188 ) ;
#108 = PERSON_AND_ORGANIZATION_ROLE ( 'design_owner' ) ;
#109 = APPROVAL_STATUS ( 'not_yet_approved' ) ;
#110 = VERTEX_POINT ( 'NONE', #171 ) ;
#111 = DATE_AND_TIME ( #217, #195 ) ;
#112 = ORIENTED_EDGE ( 'NONE', *, *, #234, .F. ) ;
#113 = ORIENTED_EDGE ( 'NONE', *, *, #162, .T. ) ;
#114 = FACE_OUTER_BOUND ( 'NONE', #48, .T. ) ;
#115 = DIRECTION ( 'NONE',  ( -0.000000000000000000, 1.000000000000000000, -0.000000000000000000 ) ) ;
#116 = ADVANCED_FACE ( 'NONE', ( #200 ), #94, .T. ) ;
#117 = DIRECTION ( 'NONE',  ( -0.000000000000000000, 1.000000000000000000, -0.000000000000000000 ) ) ;
#118 = LOCAL_TIME ( 13, 50, 21.00000000000000000, #93 ) ;
#119 = ADVANCED_FACE ( 'NONE', ( #130, #114 ), #18, .F. ) ;
#120 = LINE ( 'NONE', #105, #208 ) ;
#121 = APPROVAL ( #163, 'UNSPECIFIED' ) ;
#122 = SECURITY_CLASSIFICATION ( '', '', #185 ) ;
#123 = PRODUCT_DEFINITION ( 'UNKNOWN', '', #167, #72 ) ;
#124 = VERTEX_POINT ( 'NONE', #21 ) ;
#125 = CARTESIAN_POINT ( 'NONE',  ( 0.000000000000000000, 0.000000000000000000, 0.000000000000000000 ) ) ;
#126 = COORDINATED_UNIVERSAL_TIME_OFFSET ( 10, 0, .AHEAD. ) ;
#127 = LINE ( 'NONE', #241, #187 ) ;
#128 = APPROVAL_ROLE ( '' ) ;
#129 = FACE_BOUND ( 'NONE', #144, .T. ) ;
#130 = FACE_BOUND ( 'NONE', #20, .T. ) ;
#131 = ORIENTED_EDGE ( 'NONE', *, *, #204, .T. ) ;
#132 = APPROVAL_PERSON_ORGANIZATION ( #237, #147, #199 ) ;
#133 = FACE_OUTER_BOUND ( 'NONE', #184, .T. ) ;
#134 = DIRECTION ( 'NONE',  ( -0.000000000000000000, 1.000000000000000000, -0.000000000000000000 ) ) ;
#135 = UNCERTAINTY_MEASURE_WITH_UNIT (LENGTH_MEASURE( 1.000000000000000082E-05 ), #196, 'distance_accuracy_value', 'NONE');
#136 = AXIS2_PLACEMENT_3D ( 'NONE', #70, #235, #67 ) ;
#137 = DIRECTION ( 'NONE',  ( -0.000000000000000000, 1.000000000000000000, -0.000000000000000000 ) ) ;
#138 = APPROVAL_PERSON_ORGANIZATION ( #68, #223, #128 ) ;
#139 = VERTEX_POINT ( 'NONE', #77 ) ;
#140 = DIRECTION ( 'NONE',  ( -0.000000000000000000, 1.000000000000000000, -0.000000000000000000 ) ) ;
#141 = FACE_OUTER_BOUND ( 'NONE', #7, .T. ) ;
#142 = CC_DESIGN_APPROVAL ( #223, ( #122 ) ) ;
#143 = APPROVAL_ROLE ( '' ) ;
#144 = EDGE_LOOP ( 'NONE', ( #30, #159 ) ) ;
#145 = APPROVAL_STATUS ( 'not_yet_approved' ) ;
#146 = CARTESIAN_POINT ( 'NONE',  ( 0.000000000000000000, 0.000000000000000000, 6.500000000000000000 ) ) ;
#147 = APPROVAL ( #109, 'UNSPECIFIED' ) ;
#148 = CARTESIAN_POINT ( 'NONE',  ( 7.960204194457795477E-16, 0.000000000000000000, -6.500000000000000000 ) ) ;
#149 = ORIENTED_EDGE ( 'NONE', *, *, #216, .F. ) ;
#150 = CC_DESIGN_DATE_AND_TIME_ASSIGNMENT ( #31, #239, ( #123 ) ) ;
#151 = CIRCLE ( 'NONE', #25, 12.00000000000000000 ) ;
#152 = CIRCLE ( 'NONE', #107, 6.500000000000000000 ) ;
#153 = DIRECTION ( 'NONE',  ( 0.000000000000000000, 0.000000000000000000, 1.000000000000000000 ) ) ;
#154 = CYLINDRICAL_SURFACE ( 'NONE', #202, 6.500000000000000000 ) ;
#155 = DIRECTION ( 'NONE',  ( -0.000000000000000000, 1.000000000000000000, -0.000000000000000000 ) ) ;
#156 = ADVANCED_FACE ( 'NONE', ( #23 ), #154, .F. ) ;
#157 = DIRECTION ( 'NONE',  ( 1.000000000000000000, 0.000000000000000000, 0.000000000000000000 ) ) ;
#158 = ORIENTED_EDGE ( 'NONE', *, *, #234, .T. ) ;
#159 = ORIENTED_EDGE ( 'NONE', *, *, #82, .T. ) ;
#160 = VECTOR ( 'NONE', #6, 1000.000000000000000 ) ;
#161 = DIRECTION ( 'NONE',  ( 0.000000000000000000, 0.000000000000000000, 1.000000000000000000 ) ) ;
#162 = EDGE_CURVE ( 'NONE', #124, #139, #198, .T. ) ;
#163 = APPROVAL_STATUS ( 'not_yet_approved' ) ;
#164 = DIRECTION ( 'NONE',  ( -0.000000000000000000, 1.000000000000000000, -0.000000000000000000 ) ) ;
#165 = PERSON_AND_ORGANIZATION ( #194, #56 ) ;
#166 = DIRECTION ( 'NONE',  ( 0.000000000000000000, 0.000000000000000000, 1.000000000000000000 ) ) ;
#167 = PRODUCT_DEFINITION_FORMATION_WITH_SPECIFIED_SOURCE ( 'ANY', '', #182, .NOT_KNOWN. ) ;
#168 = APPROVAL_DATE_TIME ( #111, #121 ) ;
#169 = ORIENTED_EDGE ( 'NONE', *, *, #2, .T. ) ;
#170 = DIRECTION ( 'NONE',  ( -0.000000000000000000, 1.000000000000000000, 0.000000000000000000 ) ) ;
#171 = CARTESIAN_POINT ( 'NONE',  ( 7.960204194457795477E-16, -2.500000000000000000, -6.500000000000000000 ) ) ;
#172 = LOCAL_TIME ( 13, 50, 21.00000000000000000, #173 ) ;
#173 = COORDINATED_UNIVERSAL_TIME_OFFSET ( 10, 0, .AHEAD. ) ;
#174 = PERSON_AND_ORGANIZATION ( #194, #56 ) ;
#175 = AXIS2_PLACEMENT_3D ( 'NONE', #96, #244, #42 ) ;
#176 = DIRECTION ( 'NONE',  ( -0.000000000000000000, 1.000000000000000000, -0.000000000000000000 ) ) ;
#177 = CARTESIAN_POINT ( 'NONE',  ( 0.000000000000000000, 0.000000000000000000, 0.000000000000000000 ) ) ;
#178 = ORIENTED_EDGE ( 'NONE', *, *, #29, .F. ) ;
#179 = AXIS2_PLACEMENT_3D ( 'NONE', #177, #161, #157 ) ;
#180 = PERSON_AND_ORGANIZATION ( #194, #56 ) ;
#181 = ORIENTED_EDGE ( 'NONE', *, *, #230, .T. ) ;
#182 = PRODUCT ( 'M12 FW T 304_REV_', 'M12 FW T 304_REV_', '', ( #63 ) ) ;
#183 = ADVANCED_FACE ( 'NONE', ( #133 ), #102, .T. ) ;
#184 = EDGE_LOOP ( 'NONE', ( #113, #131, #220, #203 ) ) ;
#185 = SECURITY_CLASSIFICATION_LEVEL ( 'unclassified' ) ;
#186 = ORIENTED_EDGE ( 'NONE', *, *, #193, .T. ) ;
#187 = VECTOR ( 'NONE', #189, 1000.000000000000000 ) ;
#188 = DIRECTION ( 'NONE',  ( 0.000000000000000000, 0.000000000000000000, 1.000000000000000000 ) ) ;
#189 = DIRECTION ( 'NONE',  ( -0.000000000000000000, 1.000000000000000000, -0.000000000000000000 ) ) ;
#190 = PRODUCT_DEFINITION_SHAPE ( 'NONE', 'NONE',  #123 ) ;
#191 = CYLINDRICAL_SURFACE ( 'NONE', #87, 6.500000000000000000 ) ;
#192 = CALENDAR_DATE ( 2026, 9, 1 ) ;
#193 = EDGE_CURVE ( 'NONE', #12, #224, #62, .T. ) ;
#194 = PERSON ( 'UNSPECIFIED', 'UNSPECIFIED', 'UNSPECIFIED', ('UNSPECIFIED'), ('UNSPECIFIED'), ('UNSPECIFIED') ) ;
#195 = LOCAL_TIME ( 13, 50, 21.00000000000000000, #225 ) ;
#196 =( LENGTH_UNIT ( ) NAMED_UNIT ( * ) SI_UNIT ( .MILLI., .METRE. ) );
#197 = CC_DESIGN_PERSON_AND_ORGANIZATION_ASSIGNMENT ( #165, #247, ( #122 ) ) ;
#198 = CIRCLE ( 'NONE', #79, 12.00000000000000000 ) ;
#199 = APPROVAL_ROLE ( '' ) ;
#200 = FACE_OUTER_BOUND ( 'NONE', #103, .T. ) ;
#201 = APPROVAL_DATE_TIME ( #74, #223 ) ;
#202 = AXIS2_PLACEMENT_3D ( 'NONE', #100, #246, #24 ) ;
#203 = ORIENTED_EDGE ( 'NONE', *, *, #65, .F. ) ;
#204 = EDGE_CURVE ( 'NONE', #139, #224, #120, .T. ) ;
#205 = CARTESIAN_POINT ( 'NONE',  ( 0.000000000000000000, 0.000000000000000000, 0.000000000000000000 ) ) ;
#206 = VERTEX_POINT ( 'NONE', #78 ) ;
#207 = APPLICATION_CONTEXT ( 'configuration controlled 3d designs of mechanical parts and assemblies' ) ;
#208 = VECTOR ( 'NONE', #140, 1000.000000000000000 ) ;
#209 = PERSON_AND_ORGANIZATION ( #194, #56 ) ;
#210 = EDGE_CURVE ( 'NONE', #233, #110, #101, .T. ) ;
#211 = DIRECTION ( 'NONE',  ( 0.000000000000000000, 0.000000000000000000, 1.000000000000000000 ) ) ;
#212 = DIRECTION ( 'NONE',  ( 0.000000000000000000, 0.000000000000000000, 1.000000000000000000 ) ) ;
#213 = CARTESIAN_POINT ( 'NONE',  ( 1.469576158976823947E-15, 0.000000000000000000, -12.00000000000000000 ) ) ;
#214 = CLOSED_SHELL ( 'NONE', ( #183, #61, #156, #45, #116, #119 ) ) ;
#215 = CARTESIAN_POINT ( 'NONE',  ( 0.000000000000000000, -2.500000000000000000, 6.500000000000000000 ) ) ;
#216 = EDGE_CURVE ( 'NONE', #83, #206, #97, .T. ) ;
#217 = CALENDAR_DATE ( 2026, 9, 1 ) ;
#218 = DIRECTION ( 'NONE',  ( 0.000000000000000000, 0.000000000000000000, 1.000000000000000000 ) ) ;
#219 = APPROVAL_DATE_TIME ( #11, #147 ) ;
#220 = ORIENTED_EDGE ( 'NONE', *, *, #193, .F. ) ;
#221 = ORIENTED_EDGE ( 'NONE', *, *, #230, .F. ) ;
#222 = DIRECTION ( 'NONE',  ( -0.000000000000000000, 1.000000000000000000, -0.000000000000000000 ) ) ;
#223 = APPROVAL ( #145, 'UNSPECIFIED' ) ;
#224 = VERTEX_POINT ( 'NONE', #213 ) ;
#225 = COORDINATED_UNIVERSAL_TIME_OFFSET ( 10, 0, .AHEAD. ) ;
#226 = AXIS2_PLACEMENT_3D ( 'NONE', #8, #155, #228 ) ;
#227 = LOCAL_TIME ( 13, 50, 21.00000000000000000, #126 ) ;
#228 = DIRECTION ( 'NONE',  ( 0.000000000000000000, 0.000000000000000000, 1.000000000000000000 ) ) ;
#229 = DIRECTION ( 'NONE',  ( 0.000000000000000000, 0.000000000000000000, 1.000000000000000000 ) ) ;
#230 = EDGE_CURVE ( 'NONE', #110, #83, #26, .T. ) ;
#231 = AXIS2_PLACEMENT_3D ( 'NONE', #49, #137, #229 ) ;
#232 =( NAMED_UNIT ( * ) PLANE_ANGLE_UNIT ( ) SI_UNIT ( $, .RADIAN. ) );
#233 = VERTEX_POINT ( 'NONE', #215 ) ;
#234 = EDGE_CURVE ( 'NONE', #224, #12, #51, .T. ) ;
#235 = DIRECTION ( 'NONE',  ( -0.000000000000000000, 1.000000000000000000, -0.000000000000000000 ) ) ;
#236 = AXIS2_PLACEMENT_3D ( 'NONE', #125, #176, #212 ) ;
#237 = PERSON_AND_ORGANIZATION ( #194, #56 ) ;
#238 = PLANE ( 'NONE',  #27 ) ;
#239 = DATE_TIME_ROLE ( 'creation_date' ) ;
#240 = CARTESIAN_POINT ( 'NONE',  ( 0.000000000000000000, 0.000000000000000000, 0.000000000000000000 ) ) ;
#241 = CARTESIAN_POINT ( 'NONE',  ( 0.000000000000000000, 0.000000000000000000, 12.00000000000000000 ) ) ;
#242 = CC_DESIGN_PERSON_AND_ORGANIZATION_ASSIGNMENT ( #174, #99, ( #167 ) ) ;
#243 = CIRCLE ( 'NONE', #136, 6.500000000000000000 ) ;
#244 = DIRECTION ( 'NONE',  ( 0.000000000000000000, -1.000000000000000000, 0.000000000000000000 ) ) ;
#245 = DATE_TIME_ROLE ( 'classification_date' ) ;
#246 = DIRECTION ( 'NONE',  ( -0.000000000000000000, 1.000000000000000000, -0.000000000000000000 ) ) ;
#247 = PERSON_AND_ORGANIZATION_ROLE ( 'classification_officer' ) ;
#248 = CARTESIAN_POINT ( 'NONE',  ( 0.000000000000000000, -2.500000000000000000, 0.000000000000000000 ) ) ;
#249 = AXIS2_PLACEMENT_3D ( 'NONE', #240, #222, #57 ) ;
ENDSEC;
END-ISO-10303-21;
