ISO-10303-21;
HEADER;
FILE_DESCRIPTION (( 'STEP AP203' ),
    '1' );
FILE_NAME ('M12 ZP FLAT WASHER_REV_.step',
    '2026-02-22T05:01:17',
    ( '' ),
    ( '' ),
    'SwSTEP 2.0',
    'SolidWorks 2025',
    '' );
FILE_SCHEMA (( 'CONFIG_CONTROL_DESIGN' ));
ENDSEC;

DATA;
#1 =( NAMED_UNIT ( * ) PLANE_ANGLE_UNIT ( ) SI_UNIT ( $, .RADIAN. ) );
#2 = ORIENTED_EDGE ( 'NONE', *, *, #62, .F. ) ;
#3 = CARTESIAN_POINT ( 'NONE',  ( 1.469576158976823947E-15, -2.500000000000000000, -12.00000000000000000 ) ) ;
#4 = APPROVAL_PERSON_ORGANIZATION ( #6, #154, #67 ) ;
#5 = VERTEX_POINT ( 'NONE', #152 ) ;
#6 = PERSON_AND_ORGANIZATION ( #17, #89 ) ;
#7 = CC_DESIGN_DATE_AND_TIME_ASSIGNMENT ( #163, #107, ( #135 ) ) ;
#8 = PERSON_AND_ORGANIZATION ( #17, #89 ) ;
#9 = EDGE_LOOP ( 'NONE', ( #16, #18, #205, #65 ) ) ;
#10 = APPROVAL_DATE_TIME ( #166, #154 ) ;
#11 = CC_DESIGN_APPROVAL ( #87, ( #181 ) ) ;
#12 = CALENDAR_DATE ( 2026, 22, 2 ) ;
#13 = DIRECTION ( 'NONE',  ( -0.000000000000000000, 1.000000000000000000, -0.000000000000000000 ) ) ;
#14 = EDGE_CURVE ( 'NONE', #228, #28, #167, .T. ) ;
#15 = APPROVAL_STATUS ( 'not_yet_approved' ) ;
#16 = ORIENTED_EDGE ( 'NONE', *, *, #14, .F. ) ;
#17 = PERSON ( 'UNSPECIFIED', 'UNSPECIFIED', 'UNSPECIFIED', ('UNSPECIFIED'), ('UNSPECIFIED'), ('UNSPECIFIED') ) ;
#18 = ORIENTED_EDGE ( 'NONE', *, *, #62, .T. ) ;
#19 = AXIS2_PLACEMENT_3D ( 'NONE', #217, #121, #198 ) ;
#20 = CC_DESIGN_PERSON_AND_ORGANIZATION_ASSIGNMENT ( #220, #147, ( #181 ) ) ;
#21 = CARTESIAN_POINT ( 'NONE',  ( 8.266365894244634333E-16, 0.000000000000000000, -6.750000000000000000 ) ) ;
#22 = EDGE_CURVE ( 'NONE', #136, #219, #161, .T. ) ;
#23 = CIRCLE ( 'NONE', #158, 12.00000000000000000 ) ;
#24 = CARTESIAN_POINT ( 'NONE',  ( 8.266365894244634333E-16, -2.500000000000000000, -6.750000000000000000 ) ) ;
#25 = EDGE_CURVE ( 'NONE', #219, #136, #178, .T. ) ;
#26 = AXIS2_PLACEMENT_3D ( 'NONE', #160, #184, #143 ) ;
#27 = DIRECTION ( 'NONE',  ( -0.000000000000000000, 1.000000000000000000, -0.000000000000000000 ) ) ;
#28 = VERTEX_POINT ( 'NONE', #92 ) ;
#29 = CARTESIAN_POINT ( 'NONE',  ( 0.000000000000000000, 0.000000000000000000, 12.00000000000000000 ) ) ;
#30 = AXIS2_PLACEMENT_3D ( 'NONE', #40, #231, #58 ) ;
#31 = CALENDAR_DATE ( 2026, 22, 2 ) ;
#32 = DIRECTION ( 'NONE',  ( -0.000000000000000000, 1.000000000000000000, -0.000000000000000000 ) ) ;
#33 = CLOSED_SHELL ( 'NONE', ( #180, #225, #45, #110, #82, #173 ) ) ;
#34 = DIRECTION ( 'NONE',  ( -0.000000000000000000, 1.000000000000000000, -0.000000000000000000 ) ) ;
#35 = EDGE_LOOP ( 'NONE', ( #2, #168, #236, #36 ) ) ;
#36 = ORIENTED_EDGE ( 'NONE', *, *, #140, .T. ) ;
#37 = LOCAL_TIME ( 16, 1, 17.00000000000000000, #151 ) ;
#38 = DIRECTION ( 'NONE',  ( 0.000000000000000000, 0.000000000000000000, 1.000000000000000000 ) ) ;
#39 = CARTESIAN_POINT ( 'NONE',  ( 1.469576158976823947E-15, 0.000000000000000000, -12.00000000000000000 ) ) ;
#40 = CARTESIAN_POINT ( 'NONE',  ( 6.750000000000000000, 0.000000000000000000, 0.000000000000000000 ) ) ;
#41 = SECURITY_CLASSIFICATION ( '', '', #201 ) ;
#42 = CC_DESIGN_PERSON_AND_ORGANIZATION_ASSIGNMENT ( #88, #240, ( #41 ) ) ;
#43 = DIRECTION ( 'NONE',  ( -0.000000000000000000, 1.000000000000000000, -0.000000000000000000 ) ) ;
#44 = CC_DESIGN_PERSON_AND_ORGANIZATION_ASSIGNMENT ( #128, #164, ( #181 ) ) ;
#45 = ADVANCED_FACE ( 'NONE', ( #115 ), #73, .F. ) ;
#46 = ORIENTED_EDGE ( 'NONE', *, *, #94, .T. ) ;
#47 = AXIS2_PLACEMENT_3D ( 'NONE', #60, #212, #57 ) ;
#48 = VERTEX_POINT ( 'NONE', #97 ) ;
#49 = EDGE_LOOP ( 'NONE', ( #227, #109, #200, #209 ) ) ;
#50 = EDGE_LOOP ( 'NONE', ( #133, #221, #245, #74 ) ) ;
#51 = COORDINATED_UNIVERSAL_TIME_OFFSET ( 10, 0, .AHEAD. ) ;
#52 = EDGE_LOOP ( 'NONE', ( #189, #86 ) ) ;
#53 = CC_DESIGN_PERSON_AND_ORGANIZATION_ASSIGNMENT ( #123, #111, ( #135 ) ) ;
#54 = DIRECTION ( 'NONE',  ( 0.000000000000000000, 0.000000000000000000, 1.000000000000000000 ) ) ;
#55 = VERTEX_POINT ( 'NONE', #174 ) ;
#56 = AXIS2_PLACEMENT_3D ( 'NONE', #172, #243, #54 ) ;
#57 = DIRECTION ( 'NONE',  ( 0.000000000000000000, 0.000000000000000000, 1.000000000000000000 ) ) ;
#58 = DIRECTION ( 'NONE',  ( 0.000000000000000000, -0.000000000000000000, -1.000000000000000000 ) ) ;
#59 = AXIS2_PLACEMENT_3D ( 'NONE', #90, #112, #153 ) ;
#60 = CARTESIAN_POINT ( 'NONE',  ( 0.000000000000000000, 0.000000000000000000, 0.000000000000000000 ) ) ;
#61 = CIRCLE ( 'NONE', #47, 6.750000000000000000 ) ;
#62 = EDGE_CURVE ( 'NONE', #228, #5, #114, .T. ) ;
#63 = EDGE_CURVE ( 'NONE', #5, #48, #202, .T. ) ;
#64 = CARTESIAN_POINT ( 'NONE',  ( 0.000000000000000000, 0.000000000000000000, 0.000000000000000000 ) ) ;
#65 = ORIENTED_EDGE ( 'NONE', *, *, #126, .F. ) ;
#66 = APPROVAL_STATUS ( 'not_yet_approved' ) ;
#67 = APPROVAL_ROLE ( '' ) ;
#68 = DIRECTION ( 'NONE',  ( 0.000000000000000000, 0.000000000000000000, 1.000000000000000000 ) ) ;
#69 = DATE_AND_TIME ( #12, #214 ) ;
#70 = DIRECTION ( 'NONE',  ( -0.000000000000000000, 1.000000000000000000, -0.000000000000000000 ) ) ;
#71 = CARTESIAN_POINT ( 'NONE',  ( 0.000000000000000000, 0.000000000000000000, 0.000000000000000000 ) ) ;
#72 = APPROVAL_PERSON_ORGANIZATION ( #188, #192, #204 ) ;
#73 = CYLINDRICAL_SURFACE ( 'NONE', #59, 6.750000000000000000 ) ;
#74 = ORIENTED_EDGE ( 'NONE', *, *, #235, .F. ) ;
#75 = DIRECTION ( 'NONE',  ( 0.000000000000000000, 0.000000000000000000, 1.000000000000000000 ) ) ;
#76 = APPROVAL_PERSON_ORGANIZATION ( #8, #87, #91 ) ;
#77 = LINE ( 'NONE', #29, #118 ) ;
#78 =( NAMED_UNIT ( * ) SI_UNIT ( $, .STERADIAN. ) SOLID_ANGLE_UNIT ( ) );
#79 = CC_DESIGN_PERSON_AND_ORGANIZATION_ASSIGNMENT ( #101, #187, ( #102 ) ) ;
#80 = CC_DESIGN_APPROVAL ( #154, ( #135 ) ) ;
#81 = EDGE_CURVE ( 'NONE', #136, #148, #170, .T. ) ;
#82 = ADVANCED_FACE ( 'NONE', ( #196 ), #239, .T. ) ;
#83 = FACE_OUTER_BOUND ( 'NONE', #49, .T. ) ;
#84 = VECTOR ( 'NONE', #32, 1000.000000000000000 ) ;
#85 = COORDINATED_UNIVERSAL_TIME_OFFSET ( 10, 0, .AHEAD. ) ;
#86 = ORIENTED_EDGE ( 'NONE', *, *, #63, .F. ) ;
#87 = APPROVAL ( #125, 'UNSPECIFIED' ) ;
#88 = PERSON_AND_ORGANIZATION ( #17, #89 ) ;
#89 = ORGANIZATION ( 'UNSPECIFIED', 'UNSPECIFIED', '' ) ;
#90 = CARTESIAN_POINT ( 'NONE',  ( 0.000000000000000000, 0.000000000000000000, 0.000000000000000000 ) ) ;
#91 = APPROVAL_ROLE ( '' ) ;
#92 = CARTESIAN_POINT ( 'NONE',  ( 0.000000000000000000, -2.500000000000000000, 6.750000000000000000 ) ) ;
#93 = DATE_TIME_ROLE ( 'classification_date' ) ;
#94 = EDGE_CURVE ( 'NONE', #28, #228, #206, .T. ) ;
#95 = DIRECTION ( 'NONE',  ( 0.000000000000000000, 0.000000000000000000, 1.000000000000000000 ) ) ;
#96 = EDGE_CURVE ( 'NONE', #55, #148, #137, .T. ) ;
#97 = CARTESIAN_POINT ( 'NONE',  ( 0.000000000000000000, 0.000000000000000000, 6.750000000000000000 ) ) ;
#98 = AXIS2_PLACEMENT_3D ( 'NONE', #71, #70, #68 ) ;
#99 = EDGE_LOOP ( 'NONE', ( #134, #195 ) ) ;
#100 = DIRECTION ( 'NONE',  ( 0.000000000000000000, 0.000000000000000000, 1.000000000000000000 ) ) ;
#101 = PERSON_AND_ORGANIZATION ( #17, #89 ) ;
#102 = PRODUCT ( 'M12 ZP FLAT WASHER_REV_', 'M12 ZP FLAT WASHER_REV_', '', ( #156 ) ) ;
#103 = VECTOR ( 'NONE', #155, 1000.000000000000000 ) ;
#104 = DIRECTION ( 'NONE',  ( -0.000000000000000000, 1.000000000000000000, -0.000000000000000000 ) ) ;
#105 = PLANE ( 'NONE',  #26 ) ;
#106 = AXIS2_PLACEMENT_3D ( 'NONE', #210, #34, #38 ) ;
#107 = DATE_TIME_ROLE ( 'creation_date' ) ;
#108 = CALENDAR_DATE ( 2026, 22, 2 ) ;
#109 = ORIENTED_EDGE ( 'NONE', *, *, #81, .T. ) ;
#110 = ADVANCED_FACE ( 'NONE', ( #138, #162 ), #105, .F. ) ;
#111 = PERSON_AND_ORGANIZATION_ROLE ( 'creator' ) ;
#112 = DIRECTION ( 'NONE',  ( -0.000000000000000000, 1.000000000000000000, -0.000000000000000000 ) ) ;
#113 = ORIENTED_EDGE ( 'NONE', *, *, #14, .T. ) ;
#114 = LINE ( 'NONE', #21, #84 ) ;
#115 = FACE_OUTER_BOUND ( 'NONE', #35, .T. ) ;
#116 = CARTESIAN_POINT ( 'NONE',  ( 0.000000000000000000, -2.500000000000000000, 12.00000000000000000 ) ) ;
#117 = CYLINDRICAL_SURFACE ( 'NONE', #19, 12.00000000000000000 ) ;
#118 = VECTOR ( 'NONE', #104, 1000.000000000000000 ) ;
#119 = AXIS2_PLACEMENT_3D ( 'NONE', #122, #100, #177 ) ;
#120 = CYLINDRICAL_SURFACE ( 'NONE', #194, 6.750000000000000000 ) ;
#121 = DIRECTION ( 'NONE',  ( -0.000000000000000000, 1.000000000000000000, -0.000000000000000000 ) ) ;
#122 = CARTESIAN_POINT ( 'NONE',  ( 0.000000000000000000, 0.000000000000000000, 0.000000000000000000 ) ) ;
#123 = PERSON_AND_ORGANIZATION ( #17, #89 ) ;
#124 = AXIS2_PLACEMENT_3D ( 'NONE', #175, #191, #246 ) ;
#125 = APPROVAL_STATUS ( 'not_yet_approved' ) ;
#126 = EDGE_CURVE ( 'NONE', #28, #48, #230, .T. ) ;
#127 = EDGE_LOOP ( 'NONE', ( #165, #193 ) ) ;
#128 = PERSON_AND_ORGANIZATION ( #17, #89 ) ;
#129 = EDGE_CURVE ( 'NONE', #219, #55, #77, .T. ) ;
#130 = AXIS2_PLACEMENT_3D ( 'NONE', #226, #150, #131 ) ;
#131 = DIRECTION ( 'NONE',  ( 0.000000000000000000, 0.000000000000000000, 1.000000000000000000 ) ) ;
#132 = APPLICATION_CONTEXT ( 'configuration controlled 3d designs of mechanical parts and assemblies' ) ;
#133 = ORIENTED_EDGE ( 'NONE', *, *, #81, .F. ) ;
#134 = ORIENTED_EDGE ( 'NONE', *, *, #25, .F. ) ;
#135 = PRODUCT_DEFINITION ( 'UNKNOWN', '', #181, #216 ) ;
#136 = VERTEX_POINT ( 'NONE', #3 ) ;
#137 = CIRCLE ( 'NONE', #237, 12.00000000000000000 ) ;
#138 = FACE_OUTER_BOUND ( 'NONE', #99, .T. ) ;
#139 = CARTESIAN_POINT ( 'NONE',  ( 0.000000000000000000, 0.000000000000000000, 6.750000000000000000 ) ) ;
#140 = EDGE_CURVE ( 'NONE', #48, #5, #61, .T. ) ;
#141 = PLANE ( 'NONE',  #30 ) ;
#142 = CC_DESIGN_SECURITY_CLASSIFICATION ( #41, ( #181 ) ) ;
#143 = DIRECTION ( 'NONE',  ( 0.000000000000000000, 0.000000000000000000, 1.000000000000000000 ) ) ;
#144 = MANIFOLD_SOLID_BREP ( 'Revolve', #33 ) ;
#145 = COORDINATED_UNIVERSAL_TIME_OFFSET ( 10, 0, .AHEAD. ) ;
#146 = LOCAL_TIME ( 16, 1, 17.00000000000000000, #85 ) ;
#147 = PERSON_AND_ORGANIZATION_ROLE ( 'design_supplier' ) ;
#148 = VERTEX_POINT ( 'NONE', #39 ) ;
#149 = APPROVAL_DATE_TIME ( #69, #192 ) ;
#150 = DIRECTION ( 'NONE',  ( -0.000000000000000000, 1.000000000000000000, -0.000000000000000000 ) ) ;
#151 = COORDINATED_UNIVERSAL_TIME_OFFSET ( 10, 0, .AHEAD. ) ;
#152 = CARTESIAN_POINT ( 'NONE',  ( 8.266365894244634333E-16, 0.000000000000000000, -6.750000000000000000 ) ) ;
#153 = DIRECTION ( 'NONE',  ( 0.000000000000000000, 0.000000000000000000, 1.000000000000000000 ) ) ;
#154 = APPROVAL ( #15, 'UNSPECIFIED' ) ;
#155 = DIRECTION ( 'NONE',  ( -0.000000000000000000, 1.000000000000000000, -0.000000000000000000 ) ) ;
#156 = MECHANICAL_CONTEXT ( 'NONE', #222, 'mechanical' ) ;
#157 = CARTESIAN_POINT ( 'NONE',  ( 0.000000000000000000, 0.000000000000000000, 0.000000000000000000 ) ) ;
#158 = AXIS2_PLACEMENT_3D ( 'NONE', #64, #27, #218 ) ;
#159 = UNCERTAINTY_MEASURE_WITH_UNIT (LENGTH_MEASURE( 1.000000000000000082E-05 ), #182, 'distance_accuracy_value', 'NONE');
#160 = CARTESIAN_POINT ( 'NONE',  ( 6.750000000000000000, -2.500000000000000000, 0.000000000000000000 ) ) ;
#161 = CIRCLE ( 'NONE', #56, 12.00000000000000000 ) ;
#162 = FACE_BOUND ( 'NONE', #208, .T. ) ;
#163 = DATE_AND_TIME ( #186, #146 ) ;
#164 = PERSON_AND_ORGANIZATION_ROLE ( 'creator' ) ;
#165 = ORIENTED_EDGE ( 'NONE', *, *, #96, .T. ) ;
#166 = DATE_AND_TIME ( #31, #229 ) ;
#167 = CIRCLE ( 'NONE', #232, 6.750000000000000000 ) ;
#168 = ORIENTED_EDGE ( 'NONE', *, *, #94, .F. ) ;
#169 = DATE_AND_TIME ( #207, #185 ) ;
#170 = LINE ( 'NONE', #241, #103 ) ;
#171 = DATE_AND_TIME ( #108, #37 ) ;
#172 = CARTESIAN_POINT ( 'NONE',  ( 0.000000000000000000, -2.500000000000000000, 0.000000000000000000 ) ) ;
#173 = ADVANCED_FACE ( 'NONE', ( #233, #213 ), #141, .F. ) ;
#174 = CARTESIAN_POINT ( 'NONE',  ( 0.000000000000000000, 0.000000000000000000, 12.00000000000000000 ) ) ;
#175 = CARTESIAN_POINT ( 'NONE',  ( 0.000000000000000000, 0.000000000000000000, 0.000000000000000000 ) ) ;
#176 = ADVANCED_BREP_SHAPE_REPRESENTATION ( 'M12 ZP FLAT WASHER_REV_', ( #144, #119 ), #224 ) ;
#177 = DIRECTION ( 'NONE',  ( 1.000000000000000000, 0.000000000000000000, 0.000000000000000000 ) ) ;
#178 = CIRCLE ( 'NONE', #106, 12.00000000000000000 ) ;
#179 = DIRECTION ( 'NONE',  ( -0.000000000000000000, 1.000000000000000000, -0.000000000000000000 ) ) ;
#180 = ADVANCED_FACE ( 'NONE', ( #83 ), #117, .T. ) ;
#181 = PRODUCT_DEFINITION_FORMATION_WITH_SPECIFIED_SOURCE ( 'ANY', '', #102, .NOT_KNOWN. ) ;
#182 =( LENGTH_UNIT ( ) NAMED_UNIT ( * ) SI_UNIT ( .MILLI., .METRE. ) );
#183 = CC_DESIGN_DATE_AND_TIME_ASSIGNMENT ( #169, #93, ( #41 ) ) ;
#184 = DIRECTION ( 'NONE',  ( -0.000000000000000000, 1.000000000000000000, 0.000000000000000000 ) ) ;
#185 = LOCAL_TIME ( 16, 1, 17.00000000000000000, #51 ) ;
#186 = CALENDAR_DATE ( 2026, 22, 2 ) ;
#187 = PERSON_AND_ORGANIZATION_ROLE ( 'design_owner' ) ;
#188 = PERSON_AND_ORGANIZATION ( #17, #89 ) ;
#189 = ORIENTED_EDGE ( 'NONE', *, *, #140, .F. ) ;
#190 = APPLICATION_PROTOCOL_DEFINITION ( 'international standard', 'config_control_design', 1994, #132 ) ;
#191 = DIRECTION ( 'NONE',  ( -0.000000000000000000, 1.000000000000000000, -0.000000000000000000 ) ) ;
#192 = APPROVAL ( #66, 'UNSPECIFIED' ) ;
#193 = ORIENTED_EDGE ( 'NONE', *, *, #235, .T. ) ;
#194 = AXIS2_PLACEMENT_3D ( 'NONE', #157, #179, #199 ) ;
#195 = ORIENTED_EDGE ( 'NONE', *, *, #22, .F. ) ;
#196 = FACE_OUTER_BOUND ( 'NONE', #50, .T. ) ;
#197 = FACE_OUTER_BOUND ( 'NONE', #9, .T. ) ;
#198 = DIRECTION ( 'NONE',  ( 0.000000000000000000, 0.000000000000000000, 1.000000000000000000 ) ) ;
#199 = DIRECTION ( 'NONE',  ( 0.000000000000000000, 0.000000000000000000, 1.000000000000000000 ) ) ;
#200 = ORIENTED_EDGE ( 'NONE', *, *, #96, .F. ) ;
#201 = SECURITY_CLASSIFICATION_LEVEL ( 'unclassified' ) ;
#202 = CIRCLE ( 'NONE', #124, 6.750000000000000000 ) ;
#203 = COORDINATED_UNIVERSAL_TIME_OFFSET ( 10, 0, .AHEAD. ) ;
#204 = APPROVAL_ROLE ( '' ) ;
#205 = ORIENTED_EDGE ( 'NONE', *, *, #63, .T. ) ;
#206 = CIRCLE ( 'NONE', #130, 6.750000000000000000 ) ;
#207 = CALENDAR_DATE ( 2026, 22, 2 ) ;
#208 = EDGE_LOOP ( 'NONE', ( #46, #113 ) ) ;
#209 = ORIENTED_EDGE ( 'NONE', *, *, #129, .F. ) ;
#210 = CARTESIAN_POINT ( 'NONE',  ( 0.000000000000000000, -2.500000000000000000, 0.000000000000000000 ) ) ;
#211 = CARTESIAN_POINT ( 'NONE',  ( 0.000000000000000000, -2.500000000000000000, 0.000000000000000000 ) ) ;
#212 = DIRECTION ( 'NONE',  ( -0.000000000000000000, 1.000000000000000000, -0.000000000000000000 ) ) ;
#213 = FACE_OUTER_BOUND ( 'NONE', #127, .T. ) ;
#214 = LOCAL_TIME ( 16, 1, 17.00000000000000000, #145 ) ;
#215 = PRODUCT_DEFINITION_SHAPE ( 'NONE', 'NONE',  #135 ) ;
#216 = DESIGN_CONTEXT ( 'detailed design', #132, 'design' ) ;
#217 = CARTESIAN_POINT ( 'NONE',  ( 0.000000000000000000, 0.000000000000000000, 0.000000000000000000 ) ) ;
#218 = DIRECTION ( 'NONE',  ( 0.000000000000000000, 0.000000000000000000, 1.000000000000000000 ) ) ;
#219 = VERTEX_POINT ( 'NONE', #116 ) ;
#220 = PERSON_AND_ORGANIZATION ( #17, #89 ) ;
#221 = ORIENTED_EDGE ( 'NONE', *, *, #22, .T. ) ;
#222 = APPLICATION_CONTEXT ( 'configuration controlled 3d designs of mechanical parts and assemblies' ) ;
#223 = CARTESIAN_POINT ( 'NONE',  ( 0.000000000000000000, 0.000000000000000000, 0.000000000000000000 ) ) ;
#224 =( GEOMETRIC_REPRESENTATION_CONTEXT ( 3 ) GLOBAL_UNCERTAINTY_ASSIGNED_CONTEXT ( ( #159 ) ) GLOBAL_UNIT_ASSIGNED_CONTEXT ( ( #182, #1, #78 ) ) REPRESENTATION_CONTEXT ( 'NONE', 'WORKASPACE' ) );
#225 = ADVANCED_FACE ( 'NONE', ( #197 ), #120, .F. ) ;
#226 = CARTESIAN_POINT ( 'NONE',  ( 0.000000000000000000, -2.500000000000000000, 0.000000000000000000 ) ) ;
#227 = ORIENTED_EDGE ( 'NONE', *, *, #25, .T. ) ;
#228 = VERTEX_POINT ( 'NONE', #24 ) ;
#229 = LOCAL_TIME ( 16, 1, 17.00000000000000000, #203 ) ;
#230 = LINE ( 'NONE', #139, #234 ) ;
#231 = DIRECTION ( 'NONE',  ( 0.000000000000000000, -1.000000000000000000, 0.000000000000000000 ) ) ;
#232 = AXIS2_PLACEMENT_3D ( 'NONE', #211, #13, #95 ) ;
#233 = FACE_BOUND ( 'NONE', #52, .T. ) ;
#234 = VECTOR ( 'NONE', #249, 1000.000000000000000 ) ;
#235 = EDGE_CURVE ( 'NONE', #148, #55, #23, .T. ) ;
#236 = ORIENTED_EDGE ( 'NONE', *, *, #126, .T. ) ;
#237 = AXIS2_PLACEMENT_3D ( 'NONE', #223, #43, #75 ) ;
#238 = APPROVAL_DATE_TIME ( #171, #87 ) ;
#239 = CYLINDRICAL_SURFACE ( 'NONE', #98, 12.00000000000000000 ) ;
#240 = PERSON_AND_ORGANIZATION_ROLE ( 'classification_officer' ) ;
#241 = CARTESIAN_POINT ( 'NONE',  ( 1.469576158976823947E-15, 0.000000000000000000, -12.00000000000000000 ) ) ;
#242 = SHAPE_DEFINITION_REPRESENTATION ( #215, #176 ) ;
#243 = DIRECTION ( 'NONE',  ( -0.000000000000000000, 1.000000000000000000, -0.000000000000000000 ) ) ;
#244 = CC_DESIGN_APPROVAL ( #192, ( #41 ) ) ;
#245 = ORIENTED_EDGE ( 'NONE', *, *, #129, .T. ) ;
#246 = DIRECTION ( 'NONE',  ( 0.000000000000000000, 0.000000000000000000, 1.000000000000000000 ) ) ;
#247 = PRODUCT_RELATED_PRODUCT_CATEGORY ( 'detail', '', ( #102 ) ) ;
#248 = APPLICATION_PROTOCOL_DEFINITION ( 'international standard', 'config_control_design', 1994, #222 ) ;
#249 = DIRECTION ( 'NONE',  ( -0.000000000000000000, 1.000000000000000000, -0.000000000000000000 ) ) ;
ENDSEC;
END-ISO-10303-21;
