ISO-10303-21;
HEADER;
FILE_DESCRIPTION (( 'STEP AP203' ),
    '1' );
FILE_NAME ('M12-1_75 X 60-AT_REV_.step',
    '2025-11-20T01:12:00',
    ( '' ),
    ( '' ),
    'SwSTEP 2.0',
    'SolidWorks 2025',
    '' );
FILE_SCHEMA (( 'CONFIG_CONTROL_DESIGN' ));
ENDSEC;

DATA;
#1 = SECURITY_CLASSIFICATION_LEVEL ( 'unclassified' ) ;
#2 = MANIFOLD_SOLID_BREP ( 'Chamfer1', #135 ) ;
#3 = LINE ( 'NONE', #181, #76 ) ;
#4 = CARTESIAN_POINT ( 'NONE',  ( -5.000000000000004441, 0.000000000000000000, 60.00000000000000000 ) ) ;
#5 = CARTESIAN_POINT ( 'NONE',  ( 0.000000000000000000, 0.000000000000000000, 60.00000000000000000 ) ) ;
#6 = VECTOR ( 'NONE', #199, 1000.000000000000000 ) ;
#7 = VECTOR ( 'NONE', #242, 999.9999999999998863 ) ;
#8 = CARTESIAN_POINT ( 'NONE',  ( 0.000000000000000000, 0.000000000000000000, 1.000000000000007772 ) ) ;
#9 = CARTESIAN_POINT ( 'NONE',  ( 0.000000000000000000, 0.000000000000000000, 59.00000000000000711 ) ) ;
#10 = CIRCLE ( 'NONE', #191, 5.000000000000004441 ) ;
#11 = DIRECTION ( 'NONE',  ( 1.000000000000000000, 0.000000000000000000, 0.000000000000000000 ) ) ;
#12 = CIRCLE ( 'NONE', #48, 6.000000000000000888 ) ;
#13 = LOCAL_TIME ( 12, 12, 0.000000000000000000, #228 ) ;
#14 = APPROVAL_STATUS ( 'not_yet_approved' ) ;
#15 = DIRECTION ( 'NONE',  ( -0.000000000000000000, -0.000000000000000000, -1.000000000000000000 ) ) ;
#16 = EDGE_LOOP ( 'NONE', ( #55, #159, #188, #162 ) ) ;
#17 = PERSON_AND_ORGANIZATION ( #42, #100 ) ;
#18 = AXIS2_PLACEMENT_3D ( 'NONE', #275, #147, #82 ) ;
#19 = ORIENTED_EDGE ( 'NONE', *, *, #256, .T. ) ;
#20 = APPROVAL ( #131, 'UNSPECIFIED' ) ;
#21 = CARTESIAN_POINT ( 'NONE',  ( 0.000000000000000000, 0.000000000000000000, 60.00000000000000000 ) ) ;
#22 = CONICAL_SURFACE ( 'NONE', #216, 5.000000000000004441, 0.7853981633974496113 ) ;
#23 =( NAMED_UNIT ( * ) SI_UNIT ( $, .STERADIAN. ) SOLID_ANGLE_UNIT ( ) );
#24 = DIRECTION ( 'NONE',  ( 1.000000000000000000, 0.000000000000000000, 0.000000000000000000 ) ) ;
#25 = AXIS2_PLACEMENT_3D ( 'NONE', #113, #202, #237 ) ;
#26 = AXIS2_PLACEMENT_3D ( 'NONE', #143, #204, #11 ) ;
#27 = APPLICATION_PROTOCOL_DEFINITION ( 'international standard', 'config_control_design', 1994, #232 ) ;
#28 = AXIS2_PLACEMENT_3D ( 'NONE', #21, #40, #217 ) ;
#29 = ORIENTED_EDGE ( 'NONE', *, *, #102, .F. ) ;
#30 = DATE_AND_TIME ( #189, #49 ) ;
#31 = APPROVAL_ROLE ( '' ) ;
#32 = AXIS2_PLACEMENT_3D ( 'NONE', #5, #122, #56 ) ;
#33 = APPROVAL_PERSON_ORGANIZATION ( #274, #20, #60 ) ;
#34 = CARTESIAN_POINT ( 'NONE',  ( -6.000000000000000888, 0.000000000000000000, 59.00000000000000711 ) ) ;
#35 = DATE_TIME_ROLE ( 'creation_date' ) ;
#36 = CC_DESIGN_PERSON_AND_ORGANIZATION_ASSIGNMENT ( #151, #155, ( #124 ) ) ;
#37 = COORDINATED_UNIVERSAL_TIME_OFFSET ( 10, 0, .AHEAD. ) ;
#38 = LINE ( 'NONE', #132, #63 ) ;
#39 = APPROVAL_DATE_TIME ( #105, #20 ) ;
#40 = DIRECTION ( 'NONE',  ( 0.000000000000000000, 0.000000000000000000, 1.000000000000000000 ) ) ;
#41 = EDGE_CURVE ( 'NONE', #234, #175, #241, .T. ) ;
#42 = PERSON ( 'UNSPECIFIED', 'UNSPECIFIED', 'UNSPECIFIED', ('UNSPECIFIED'), ('UNSPECIFIED'), ('UNSPECIFIED') ) ;
#43 = ORIENTED_EDGE ( 'NONE', *, *, #248, .T. ) ;
#44 = ORIENTED_EDGE ( 'NONE', *, *, #154, .F. ) ;
#45 = DIRECTION ( 'NONE',  ( 0.7071067811865484609, 8.659560562354943952E-17, -0.7071067811865465735 ) ) ;
#46 = EDGE_CURVE ( 'NONE', #126, #270, #108, .T. ) ;
#47 = CARTESIAN_POINT ( 'NONE',  ( 6.000000000000000888, 7.347880794884120722E-16, 60.00000000000000000 ) ) ;
#48 = AXIS2_PLACEMENT_3D ( 'NONE', #9, #96, #91 ) ;
#49 = LOCAL_TIME ( 12, 12, 0.000000000000000000, #37 ) ;
#50 = APPROVAL ( #14, 'UNSPECIFIED' ) ;
#51 =( NAMED_UNIT ( * ) PLANE_ANGLE_UNIT ( ) SI_UNIT ( $, .RADIAN. ) );
#52 = AXIS2_PLACEMENT_3D ( 'NONE', #115, #72, #221 ) ;
#53 = ADVANCED_FACE ( 'NONE', ( #92 ), #172, .T. ) ;
#54 =( GEOMETRIC_REPRESENTATION_CONTEXT ( 3 ) GLOBAL_UNCERTAINTY_ASSIGNED_CONTEXT ( ( #260 ) ) GLOBAL_UNIT_ASSIGNED_CONTEXT ( ( #222, #51, #23 ) ) REPRESENTATION_CONTEXT ( 'NONE', 'WORKASPACE' ) );
#55 = ORIENTED_EDGE ( 'NONE', *, *, #104, .F. ) ;
#56 = DIRECTION ( 'NONE',  ( -1.000000000000000000, 0.000000000000000000, 0.000000000000000000 ) ) ;
#57 = PERSON_AND_ORGANIZATION ( #42, #100 ) ;
#58 = ORIENTED_EDGE ( 'NONE', *, *, #116, .F. ) ;
#59 = CARTESIAN_POINT ( 'NONE',  ( 0.000000000000000000, 0.000000000000000000, 60.00000000000000000 ) ) ;
#60 = APPROVAL_ROLE ( '' ) ;
#61 = CC_DESIGN_DATE_AND_TIME_ASSIGNMENT ( #30, #35, ( #124 ) ) ;
#62 = PERSON_AND_ORGANIZATION ( #42, #100 ) ;
#63 = VECTOR ( 'NONE', #215, 1000.000000000000000 ) ;
#64 = EDGE_LOOP ( 'NONE', ( #145, #268, #263, #153 ) ) ;
#65 = CALENDAR_DATE ( 2025, 20, 11 ) ;
#66 = DIRECTION ( 'NONE',  ( 1.000000000000000000, 0.000000000000000000, 0.000000000000000000 ) ) ;
#67 = ORIENTED_EDGE ( 'NONE', *, *, #99, .F. ) ;
#68 = AXIS2_PLACEMENT_3D ( 'NONE', #95, #184, #257 ) ;
#69 = PLANE ( 'NONE',  #146 ) ;
#70 = DIRECTION ( 'NONE',  ( 1.000000000000000000, 0.000000000000000000, 0.000000000000000000 ) ) ;
#71 = CARTESIAN_POINT ( 'NONE',  ( 0.000000000000000000, 0.000000000000000000, 0.000000000000000000 ) ) ;
#72 = DIRECTION ( 'NONE',  ( -0.000000000000000000, -0.000000000000000000, 1.000000000000000000 ) ) ;
#73 = CC_DESIGN_PERSON_AND_ORGANIZATION_ASSIGNMENT ( #214, #212, ( #170 ) ) ;
#74 = CARTESIAN_POINT ( 'NONE',  ( -4.999999999999991118, 6.735557395310437093E-16, 0.000000000000000000 ) ) ;
#75 = CONICAL_SURFACE ( 'NONE', #32, 5.000000000000004441, 0.7853981633974496113 ) ;
#76 = VECTOR ( 'NONE', #97, 999.9999999999998863 ) ;
#77 = LINE ( 'NONE', #236, #7 ) ;
#78 = DIRECTION ( 'NONE',  ( 0.000000000000000000, 0.000000000000000000, -1.000000000000000000 ) ) ;
#79 = DIRECTION ( 'NONE',  ( -0.000000000000000000, -0.000000000000000000, 1.000000000000000000 ) ) ;
#80 = ADVANCED_FACE ( 'NONE', ( #138 ), #90, .T. ) ;
#81 = APPROVAL_ROLE ( '' ) ;
#82 = DIRECTION ( 'NONE',  ( -1.000000000000000000, 0.000000000000000000, 0.000000000000000000 ) ) ;
#83 = PERSON_AND_ORGANIZATION ( #42, #100 ) ;
#84 = EDGE_LOOP ( 'NONE', ( #123, #106, #19, #226 ) ) ;
#85 = CALENDAR_DATE ( 2025, 20, 11 ) ;
#86 = APPLICATION_PROTOCOL_DEFINITION ( 'international standard', 'config_control_design', 1994, #254 ) ;
#87 = DIRECTION ( 'NONE',  ( 1.000000000000000000, 0.000000000000000000, 0.000000000000000000 ) ) ;
#88 = ADVANCED_FACE ( 'NONE', ( #220 ), #264, .T. ) ;
#89 = FACE_OUTER_BOUND ( 'NONE', #16, .T. ) ;
#90 = PLANE ( 'NONE',  #28 ) ;
#91 = DIRECTION ( 'NONE',  ( 1.000000000000000000, 0.000000000000000000, 0.000000000000000000 ) ) ;
#92 = FACE_OUTER_BOUND ( 'NONE', #84, .T. ) ;
#93 = CC_DESIGN_DATE_AND_TIME_ASSIGNMENT ( #192, #247, ( #179 ) ) ;
#94 = FACE_OUTER_BOUND ( 'NONE', #157, .T. ) ;
#95 = CARTESIAN_POINT ( 'NONE',  ( 0.000000000000000000, 0.000000000000000000, 60.00000000000000000 ) ) ;
#96 = DIRECTION ( 'NONE',  ( 0.000000000000000000, 0.000000000000000000, -1.000000000000000000 ) ) ;
#97 = DIRECTION ( 'NONE',  ( 0.7071067811865482389, 0.000000000000000000, 0.7071067811865469066 ) ) ;
#98 = APPROVAL_PERSON_ORGANIZATION ( #196, #120, #81 ) ;
#99 = EDGE_CURVE ( 'NONE', #195, #165, #10, .T. ) ;
#100 = ORGANIZATION ( 'UNSPECIFIED', 'UNSPECIFIED', '' ) ;
#101 = PRODUCT_DEFINITION_SHAPE ( 'NONE', 'NONE',  #124 ) ;
#102 = EDGE_CURVE ( 'NONE', #175, #223, #259, .T. ) ;
#103 = APPROVAL_PERSON_ORGANIZATION ( #57, #50, #31 ) ;
#104 = EDGE_CURVE ( 'NONE', #165, #195, #243, .T. ) ;
#105 = DATE_AND_TIME ( #65, #244 ) ;
#106 = ORIENTED_EDGE ( 'NONE', *, *, #46, .F. ) ;
#107 = DATE_AND_TIME ( #233, #13 ) ;
#108 = CIRCLE ( 'NONE', #25, 4.999999999999991118 ) ;
#109 = CARTESIAN_POINT ( 'NONE',  ( 0.000000000000000000, 0.000000000000000000, 0.000000000000000000 ) ) ;
#110 = DIRECTION ( 'NONE',  ( -0.000000000000000000, -0.000000000000000000, 1.000000000000000000 ) ) ;
#111 = DIRECTION ( 'NONE',  ( 0.000000000000000000, 0.000000000000000000, 1.000000000000000000 ) ) ;
#112 = AXIS2_PLACEMENT_3D ( 'NONE', #205, #79, #24 ) ;
#113 = CARTESIAN_POINT ( 'NONE',  ( 0.000000000000000000, 0.000000000000000000, 0.000000000000000000 ) ) ;
#114 = EDGE_CURVE ( 'NONE', #208, #223, #38, .T. ) ;
#115 = CARTESIAN_POINT ( 'NONE',  ( 0.000000000000000000, 0.000000000000000000, 1.000000000000007772 ) ) ;
#116 = EDGE_CURVE ( 'NONE', #270, #126, #128, .T. ) ;
#117 = DIRECTION ( 'NONE',  ( -1.000000000000000000, 0.000000000000000000, 0.000000000000000000 ) ) ;
#118 = CARTESIAN_POINT ( 'NONE',  ( 6.000000000000000888, 7.347880794884120722E-16, 1.000000000000007772 ) ) ;
#119 = CARTESIAN_POINT ( 'NONE',  ( 0.000000000000000000, 0.000000000000000000, 59.00000000000000711 ) ) ;
#120 = APPROVAL ( #125, 'UNSPECIFIED' ) ;
#121 = ORIENTED_EDGE ( 'NONE', *, *, #156, .T. ) ;
#122 = DIRECTION ( 'NONE',  ( 0.000000000000000000, 0.000000000000000000, -1.000000000000000000 ) ) ;
#123 = ORIENTED_EDGE ( 'NONE', *, *, #248, .F. ) ;
#124 = PRODUCT_DEFINITION ( 'UNKNOWN', '', #170, #250 ) ;
#125 = APPROVAL_STATUS ( 'not_yet_approved' ) ;
#126 = VERTEX_POINT ( 'NONE', #197 ) ;
#127 = AXIS2_PLACEMENT_3D ( 'NONE', #109, #238, #66 ) ;
#128 = CIRCLE ( 'NONE', #127, 4.999999999999991118 ) ;
#129 = COORDINATED_UNIVERSAL_TIME_OFFSET ( 10, 0, .AHEAD. ) ;
#130 = ORIENTED_EDGE ( 'NONE', *, *, #256, .F. ) ;
#131 = APPROVAL_STATUS ( 'not_yet_approved' ) ;
#132 = CARTESIAN_POINT ( 'NONE',  ( -6.000000000000000888, 0.000000000000000000, 60.00000000000000000 ) ) ;
#133 = EDGE_CURVE ( 'NONE', #195, #208, #198, .T. ) ;
#134 = PERSON_AND_ORGANIZATION_ROLE ( 'classification_officer' ) ;
#135 = CLOSED_SHELL ( 'NONE', ( #148, #88, #190, #218, #80, #265, #53, #273 ) ) ;
#136 = EDGE_LOOP ( 'NONE', ( #231, #272 ) ) ;
#137 = CARTESIAN_POINT ( 'NONE',  ( 0.000000000000000000, 0.000000000000000000, 60.00000000000000000 ) ) ;
#138 = FACE_OUTER_BOUND ( 'NONE', #136, .T. ) ;
#139 = CC_DESIGN_PERSON_AND_ORGANIZATION_ASSIGNMENT ( #62, #249, ( #187 ) ) ;
#140 = DIRECTION ( 'NONE',  ( -0.000000000000000000, -0.000000000000000000, 1.000000000000000000 ) ) ;
#141 = LINE ( 'NONE', #239, #206 ) ;
#142 = DIRECTION ( 'NONE',  ( 0.000000000000000000, 0.000000000000000000, 1.000000000000000000 ) ) ;
#143 = CARTESIAN_POINT ( 'NONE',  ( 0.000000000000000000, 0.000000000000000000, 0.000000000000000000 ) ) ;
#144 = CC_DESIGN_PERSON_AND_ORGANIZATION_ASSIGNMENT ( #83, #134, ( #179 ) ) ;
#145 = ORIENTED_EDGE ( 'NONE', *, *, #227, .T. ) ;
#146 = AXIS2_PLACEMENT_3D ( 'NONE', #71, #142, #164 ) ;
#147 = DIRECTION ( 'NONE',  ( -0.000000000000000000, -0.000000000000000000, -1.000000000000000000 ) ) ;
#148 = ADVANCED_FACE ( 'NONE', ( #89 ), #75, .T. ) ;
#149 = ORIENTED_EDGE ( 'NONE', *, *, #154, .T. ) ;
#150 = FACE_OUTER_BOUND ( 'NONE', #251, .T. ) ;
#151 = PERSON_AND_ORGANIZATION ( #42, #100 ) ;
#152 = DATE_AND_TIME ( #210, #253 ) ;
#153 = ORIENTED_EDGE ( 'NONE', *, *, #114, .F. ) ;
#154 = EDGE_CURVE ( 'NONE', #234, #208, #200, .T. ) ;
#155 = PERSON_AND_ORGANIZATION_ROLE ( 'creator' ) ;
#156 = EDGE_CURVE ( 'NONE', #223, #175, #267, .T. ) ;
#157 = EDGE_LOOP ( 'NONE', ( #224, #171 ) ) ;
#158 = PERSON_AND_ORGANIZATION_ROLE ( 'creator' ) ;
#159 = ORIENTED_EDGE ( 'NONE', *, *, #235, .T. ) ;
#160 = AXIS2_PLACEMENT_3D ( 'NONE', #219, #140, #87 ) ;
#161 = DIRECTION ( 'NONE',  ( -0.000000000000000000, -0.000000000000000000, -1.000000000000000000 ) ) ;
#162 = ORIENTED_EDGE ( 'NONE', *, *, #133, .F. ) ;
#163 = CARTESIAN_POINT ( 'NONE',  ( 6.000000000000000888, 7.347880794884120722E-16, 59.00000000000000711 ) ) ;
#164 = DIRECTION ( 'NONE',  ( 1.000000000000000000, 0.000000000000000000, -0.000000000000000000 ) ) ;
#165 = VERTEX_POINT ( 'NONE', #266 ) ;
#166 = DIRECTION ( 'NONE',  ( 0.000000000000000000, 0.000000000000000000, -1.000000000000000000 ) ) ;
#167 = FACE_OUTER_BOUND ( 'NONE', #213, .T. ) ;
#168 = ADVANCED_BREP_SHAPE_REPRESENTATION ( 'M12-1_75 X 60-AT_REV_', ( #2, #26 ), #54 ) ;
#169 = CYLINDRICAL_SURFACE ( 'NONE', #18, 6.000000000000000888 ) ;
#170 = PRODUCT_DEFINITION_FORMATION_WITH_SPECIFIED_SOURCE ( 'ANY', '', #187, .NOT_KNOWN. ) ;
#171 = ORIENTED_EDGE ( 'NONE', *, *, #116, .T. ) ;
#172 = CONICAL_SURFACE ( 'NONE', #52, 6.000000000000000888, 0.7853981633974491672 ) ;
#173 = APPROVAL_DATE_TIME ( #107, #120 ) ;
#174 = CARTESIAN_POINT ( 'NONE',  ( -5.000000000000004441, 0.000000000000000000, 60.00000000000000000 ) ) ;
#175 = VERTEX_POINT ( 'NONE', #118 ) ;
#176 = DIRECTION ( 'NONE',  ( -1.000000000000000000, 0.000000000000000000, 0.000000000000000000 ) ) ;
#177 = COORDINATED_UNIVERSAL_TIME_OFFSET ( 10, 0, .AHEAD. ) ;
#178 = AXIS2_PLACEMENT_3D ( 'NONE', #59, #15, #176 ) ;
#179 = SECURITY_CLASSIFICATION ( '', '', #1 ) ;
#180 = CARTESIAN_POINT ( 'NONE',  ( 0.000000000000000000, 0.000000000000000000, 60.00000000000000000 ) ) ;
#181 = CARTESIAN_POINT ( 'NONE',  ( 6.000000000000000888, 0.000000000000000000, 1.000000000000007772 ) ) ;
#182 = CC_DESIGN_APPROVAL ( #50, ( #179 ) ) ;
#183 = PRODUCT_RELATED_PRODUCT_CATEGORY ( 'detail', '', ( #187 ) ) ;
#184 = DIRECTION ( 'NONE',  ( 0.000000000000000000, 0.000000000000000000, 1.000000000000000000 ) ) ;
#185 = FACE_OUTER_BOUND ( 'NONE', #64, .T. ) ;
#186 = CC_DESIGN_APPROVAL ( #20, ( #124 ) ) ;
#187 = PRODUCT ( 'M12-1_75 X 60-AT_REV_', 'M12-1_75 X 60-AT_REV_', '', ( #245 ) ) ;
#188 = ORIENTED_EDGE ( 'NONE', *, *, #227, .F. ) ;
#189 = CALENDAR_DATE ( 2025, 20, 11 ) ;
#190 = ADVANCED_FACE ( 'NONE', ( #185 ), #169, .T. ) ;
#191 = AXIS2_PLACEMENT_3D ( 'NONE', #180, #111, #203 ) ;
#192 = DATE_AND_TIME ( #85, #201 ) ;
#193 = ORIENTED_EDGE ( 'NONE', *, *, #41, .F. ) ;
#194 = APPROVAL_DATE_TIME ( #152, #50 ) ;
#195 = VERTEX_POINT ( 'NONE', #174 ) ;
#196 = PERSON_AND_ORGANIZATION ( #42, #100 ) ;
#197 = CARTESIAN_POINT ( 'NONE',  ( 4.999999999999991118, 0.000000000000000000, 0.000000000000000000 ) ) ;
#198 = LINE ( 'NONE', #4, #6 ) ;
#199 = DIRECTION ( 'NONE',  ( -0.7071067811865484609, 0.000000000000000000, -0.7071067811865465735 ) ) ;
#200 = CIRCLE ( 'NONE', #229, 6.000000000000000888 ) ;
#201 = LOCAL_TIME ( 12, 12, 0.000000000000000000, #177 ) ;
#202 = DIRECTION ( 'NONE',  ( -0.000000000000000000, -0.000000000000000000, -1.000000000000000000 ) ) ;
#203 = DIRECTION ( 'NONE',  ( 1.000000000000000000, 0.000000000000000000, 0.000000000000000000 ) ) ;
#204 = DIRECTION ( 'NONE',  ( 0.000000000000000000, 0.000000000000000000, 1.000000000000000000 ) ) ;
#205 = CARTESIAN_POINT ( 'NONE',  ( 0.000000000000000000, 0.000000000000000000, 1.000000000000007772 ) ) ;
#206 = VECTOR ( 'NONE', #45, 1000.000000000000000 ) ;
#207 = CC_DESIGN_APPROVAL ( #120, ( #170 ) ) ;
#208 = VERTEX_POINT ( 'NONE', #34 ) ;
#209 = AXIS2_PLACEMENT_3D ( 'NONE', #8, #110, #70 ) ;
#210 = CALENDAR_DATE ( 2025, 20, 11 ) ;
#211 = CARTESIAN_POINT ( 'NONE',  ( -6.000000000000000888, 0.000000000000000000, 1.000000000000007772 ) ) ;
#212 = PERSON_AND_ORGANIZATION_ROLE ( 'design_supplier' ) ;
#213 = EDGE_LOOP ( 'NONE', ( #252, #67, #258, #44 ) ) ;
#214 = PERSON_AND_ORGANIZATION ( #42, #100 ) ;
#215 = DIRECTION ( 'NONE',  ( -0.000000000000000000, -0.000000000000000000, -1.000000000000000000 ) ) ;
#216 = AXIS2_PLACEMENT_3D ( 'NONE', #137, #166, #117 ) ;
#217 = DIRECTION ( 'NONE',  ( 1.000000000000000000, 0.000000000000000000, -0.000000000000000000 ) ) ;
#218 = ADVANCED_FACE ( 'NONE', ( #150 ), #225, .T. ) ;
#219 = CARTESIAN_POINT ( 'NONE',  ( 0.000000000000000000, 0.000000000000000000, 1.000000000000007772 ) ) ;
#220 = FACE_OUTER_BOUND ( 'NONE', #269, .T. ) ;
#221 = DIRECTION ( 'NONE',  ( 1.000000000000000000, 0.000000000000000000, 0.000000000000000000 ) ) ;
#222 =( LENGTH_UNIT ( ) NAMED_UNIT ( * ) SI_UNIT ( .MILLI., .METRE. ) );
#223 = VERTEX_POINT ( 'NONE', #211 ) ;
#224 = ORIENTED_EDGE ( 'NONE', *, *, #46, .T. ) ;
#225 = CYLINDRICAL_SURFACE ( 'NONE', #178, 6.000000000000000888 ) ;
#226 = ORIENTED_EDGE ( 'NONE', *, *, #156, .F. ) ;
#227 = EDGE_CURVE ( 'NONE', #208, #234, #12, .T. ) ;
#228 = COORDINATED_UNIVERSAL_TIME_OFFSET ( 10, 0, .AHEAD. ) ;
#229 = AXIS2_PLACEMENT_3D ( 'NONE', #119, #78, #246 ) ;
#230 = SHAPE_DEFINITION_REPRESENTATION ( #101, #168 ) ;
#231 = ORIENTED_EDGE ( 'NONE', *, *, #99, .T. ) ;
#232 = APPLICATION_CONTEXT ( 'configuration controlled 3d designs of mechanical parts and assemblies' ) ;
#233 = CALENDAR_DATE ( 2025, 20, 11 ) ;
#234 = VERTEX_POINT ( 'NONE', #163 ) ;
#235 = EDGE_CURVE ( 'NONE', #165, #234, #141, .T. ) ;
#236 = CARTESIAN_POINT ( 'NONE',  ( -6.000000000000000888, 7.347880794884120722E-16, 1.000000000000007772 ) ) ;
#237 = DIRECTION ( 'NONE',  ( 1.000000000000000000, 0.000000000000000000, 0.000000000000000000 ) ) ;
#238 = DIRECTION ( 'NONE',  ( -0.000000000000000000, -0.000000000000000000, -1.000000000000000000 ) ) ;
#239 = CARTESIAN_POINT ( 'NONE',  ( 5.000000000000004441, 6.123233995736772199E-16, 60.00000000000000000 ) ) ;
#240 = CC_DESIGN_PERSON_AND_ORGANIZATION_ASSIGNMENT ( #17, #158, ( #170 ) ) ;
#241 = LINE ( 'NONE', #47, #271 ) ;
#242 = DIRECTION ( 'NONE',  ( -0.7071067811865482389, 8.659560562354941486E-17, 0.7071067811865469066 ) ) ;
#243 = CIRCLE ( 'NONE', #68, 5.000000000000004441 ) ;
#244 = LOCAL_TIME ( 12, 12, 0.000000000000000000, #255 ) ;
#245 = MECHANICAL_CONTEXT ( 'NONE', #232, 'mechanical' ) ;
#246 = DIRECTION ( 'NONE',  ( 1.000000000000000000, 0.000000000000000000, 0.000000000000000000 ) ) ;
#247 = DATE_TIME_ROLE ( 'classification_date' ) ;
#248 = EDGE_CURVE ( 'NONE', #270, #223, #77, .T. ) ;
#249 = PERSON_AND_ORGANIZATION_ROLE ( 'design_owner' ) ;
#250 = DESIGN_CONTEXT ( 'detailed design', #254, 'design' ) ;
#251 = EDGE_LOOP ( 'NONE', ( #193, #149, #262, #121 ) ) ;
#252 = ORIENTED_EDGE ( 'NONE', *, *, #235, .F. ) ;
#253 = LOCAL_TIME ( 12, 12, 0.000000000000000000, #129 ) ;
#254 = APPLICATION_CONTEXT ( 'configuration controlled 3d designs of mechanical parts and assemblies' ) ;
#255 = COORDINATED_UNIVERSAL_TIME_OFFSET ( 10, 0, .AHEAD. ) ;
#256 = EDGE_CURVE ( 'NONE', #126, #175, #3, .T. ) ;
#257 = DIRECTION ( 'NONE',  ( 1.000000000000000000, 0.000000000000000000, 0.000000000000000000 ) ) ;
#258 = ORIENTED_EDGE ( 'NONE', *, *, #133, .T. ) ;
#259 = CIRCLE ( 'NONE', #209, 6.000000000000000888 ) ;
#260 = UNCERTAINTY_MEASURE_WITH_UNIT (LENGTH_MEASURE( 1.000000000000000082E-05 ), #222, 'distance_accuracy_value', 'NONE');
#261 = CC_DESIGN_SECURITY_CLASSIFICATION ( #179, ( #170 ) ) ;
#262 = ORIENTED_EDGE ( 'NONE', *, *, #114, .T. ) ;
#263 = ORIENTED_EDGE ( 'NONE', *, *, #102, .T. ) ;
#264 = CONICAL_SURFACE ( 'NONE', #160, 6.000000000000000888, 0.7853981633974491672 ) ;
#265 = ADVANCED_FACE ( 'NONE', ( #94 ), #69, .F. ) ;
#266 = CARTESIAN_POINT ( 'NONE',  ( 5.000000000000004441, 6.735557395310445967E-16, 60.00000000000000000 ) ) ;
#267 = CIRCLE ( 'NONE', #112, 6.000000000000000888 ) ;
#268 = ORIENTED_EDGE ( 'NONE', *, *, #41, .T. ) ;
#269 = EDGE_LOOP ( 'NONE', ( #58, #43, #29, #130 ) ) ;
#270 = VERTEX_POINT ( 'NONE', #74 ) ;
#271 = VECTOR ( 'NONE', #161, 1000.000000000000000 ) ;
#272 = ORIENTED_EDGE ( 'NONE', *, *, #104, .T. ) ;
#273 = ADVANCED_FACE ( 'NONE', ( #167 ), #22, .T. ) ;
#274 = PERSON_AND_ORGANIZATION ( #42, #100 ) ;
#275 = CARTESIAN_POINT ( 'NONE',  ( 0.000000000000000000, 0.000000000000000000, 60.00000000000000000 ) ) ;
ENDSEC;
END-ISO-10303-21;
