ISO-10303-21;
HEADER;
FILE_DESCRIPTION (( 'STEP AP203' ),
    '1' );
FILE_NAME ('M12-1_75-AT_REV_.step',
    '2025-11-20T00:57:02',
    ( '' ),
    ( '' ),
    'SwSTEP 2.0',
    'SolidWorks 2025',
    '' );
FILE_SCHEMA (( 'CONFIG_CONTROL_DESIGN' ));
ENDSEC;

DATA;
#1 = MANIFOLD_SOLID_BREP ( 'Chamfer1', #203 ) ;
#2 = PLANE ( 'NONE',  #5 ) ;
#3 = CARTESIAN_POINT ( 'NONE',  ( 6.000000000000000888, 7.347880794884120722E-16, 148.9999999999999716 ) ) ;
#4 = CARTESIAN_POINT ( 'NONE',  ( 0.000000000000000000, 0.000000000000000000, 150.0000000000000000 ) ) ;
#5 = AXIS2_PLACEMENT_3D ( 'NONE', #136, #223, #258 ) ;
#6 = LOCAL_TIME ( 11, 57, 2.000000000000000000, #85 ) ;
#7 = DIRECTION ( 'NONE',  ( -0.000000000000000000, -0.000000000000000000, -1.000000000000000000 ) ) ;
#8 = PERSON_AND_ORGANIZATION_ROLE ( 'design_owner' ) ;
#9 = SECURITY_CLASSIFICATION ( '', '', #106 ) ;
#10 = PERSON_AND_ORGANIZATION ( #108, #173 ) ;
#11 = EDGE_CURVE ( 'NONE', #255, #152, #97, .T. ) ;
#12 = PERSON_AND_ORGANIZATION ( #108, #173 ) ;
#13 = APPROVAL ( #193, 'UNSPECIFIED' ) ;
#14 = AXIS2_PLACEMENT_3D ( 'NONE', #191, #188, #270 ) ;
#15 = APPROVAL_ROLE ( '' ) ;
#16 = DATE_TIME_ROLE ( 'classification_date' ) ;
#17 = ORIENTED_EDGE ( 'NONE', *, *, #112, .T. ) ;
#18 = AXIS2_PLACEMENT_3D ( 'NONE', #51, #94, #117 ) ;
#19 = CC_DESIGN_DATE_AND_TIME_ASSIGNMENT ( #273, #124, ( #43 ) ) ;
#20 = EDGE_LOOP ( 'NONE', ( #256, #145 ) ) ;
#21 = EDGE_LOOP ( 'NONE', ( #111, #127, #178, #66 ) ) ;
#22 = VERTEX_POINT ( 'NONE', #3 ) ;
#23 = VECTOR ( 'NONE', #244, 1000.000000000000000 ) ;
#24 = FACE_OUTER_BOUND ( 'NONE', #20, .T. ) ;
#25 = LINE ( 'NONE', #114, #153 ) ;
#26 = CARTESIAN_POINT ( 'NONE',  ( -6.000000000000000888, 0.000000000000000000, 1.000000000000028644 ) ) ;
#27 = CARTESIAN_POINT ( 'NONE',  ( 0.000000000000000000, 0.000000000000000000, 150.0000000000000000 ) ) ;
#28 = AXIS2_PLACEMENT_3D ( 'NONE', #164, #77, #245 ) ;
#29 = CARTESIAN_POINT ( 'NONE',  ( -6.000000000000000888, 0.000000000000000000, 148.9999999999999716 ) ) ;
#30 = CARTESIAN_POINT ( 'NONE',  ( -4.999999999999990230, 0.000000000000000000, 150.0000000000000000 ) ) ;
#31 = CARTESIAN_POINT ( 'NONE',  ( 0.000000000000000000, 0.000000000000000000, 0.000000000000000000 ) ) ;
#32 = CIRCLE ( 'NONE', #28, 4.999999999999990230 ) ;
#33 = CC_DESIGN_SECURITY_CLASSIFICATION ( #9, ( #165 ) ) ;
#34 = APPROVAL_STATUS ( 'not_yet_approved' ) ;
#35 = ADVANCED_FACE ( 'NONE', ( #155 ), #190, .T. ) ;
#36 = PERSON_AND_ORGANIZATION_ROLE ( 'classification_officer' ) ;
#37 = AXIS2_PLACEMENT_3D ( 'NONE', #259, #219, #225 ) ;
#38 = LOCAL_TIME ( 11, 57, 2.000000000000000000, #123 ) ;
#39 = DATE_AND_TIME ( #251, #38 ) ;
#40 = EDGE_LOOP ( 'NONE', ( #160, #236, #17, #90 ) ) ;
#41 = APPROVAL_STATUS ( 'not_yet_approved' ) ;
#42 = ORIENTED_EDGE ( 'NONE', *, *, #79, .F. ) ;
#43 = PRODUCT_DEFINITION ( 'UNKNOWN', '', #165, #194 ) ;
#44 = ORIENTED_EDGE ( 'NONE', *, *, #65, .T. ) ;
#45 = CIRCLE ( 'NONE', #49, 6.000000000000000888 ) ;
#46 = ADVANCED_FACE ( 'NONE', ( #137 ), #224, .T. ) ;
#47 = ORIENTED_EDGE ( 'NONE', *, *, #202, .T. ) ;
#48 = CARTESIAN_POINT ( 'NONE',  ( 6.000000000000000888, 7.347880794884120722E-16, 150.0000000000000000 ) ) ;
#49 = AXIS2_PLACEMENT_3D ( 'NONE', #204, #238, #221 ) ;
#50 = APPLICATION_CONTEXT ( 'configuration controlled 3d designs of mechanical parts and assemblies' ) ;
#51 = CARTESIAN_POINT ( 'NONE',  ( 0.000000000000000000, 0.000000000000000000, 150.0000000000000000 ) ) ;
#52 = CARTESIAN_POINT ( 'NONE',  ( -4.999999999999990230, 0.000000000000000000, 150.0000000000000000 ) ) ;
#53 = CIRCLE ( 'NONE', #265, 4.999999999999977796 ) ;
#54 = EDGE_CURVE ( 'NONE', #22, #255, #72, .T. ) ;
#55 = CARTESIAN_POINT ( 'NONE',  ( 6.000000000000000888, 7.347880794884120722E-16, 1.000000000000028644 ) ) ;
#56 = MECHANICAL_CONTEXT ( 'NONE', #50, 'mechanical' ) ;
#57 = CONICAL_SURFACE ( 'NONE', #239, 4.999999999999990230, 0.7853981633974391752 ) ;
#58 = DIRECTION ( 'NONE',  ( 0.7071067811865456854, 0.000000000000000000, 0.7071067811865493491 ) ) ;
#59 = PERSON_AND_ORGANIZATION ( #108, #173 ) ;
#60 = APPROVAL_PERSON_ORGANIZATION ( #59, #128, #126 ) ;
#61 = COORDINATED_UNIVERSAL_TIME_OFFSET ( 10, 0, .AHEAD. ) ;
#62 = ORIENTED_EDGE ( 'NONE', *, *, #274, .T. ) ;
#63 = ADVANCED_FACE ( 'NONE', ( #240 ), #243, .T. ) ;
#64 = EDGE_LOOP ( 'NONE', ( #217, #86, #171, #44 ) ) ;
#65 = EDGE_CURVE ( 'NONE', #152, #255, #45, .T. ) ;
#66 = ORIENTED_EDGE ( 'NONE', *, *, #112, .F. ) ;
#67 = ORIENTED_EDGE ( 'NONE', *, *, #65, .F. ) ;
#68 = DIRECTION ( 'NONE',  ( -0.000000000000000000, -0.000000000000000000, 1.000000000000000000 ) ) ;
#69 = CIRCLE ( 'NONE', #91, 4.999999999999977796 ) ;
#70 = LINE ( 'NONE', #52, #120 ) ;
#71 = CC_DESIGN_PERSON_AND_ORGANIZATION_ASSIGNMENT ( #12, #8, ( #197 ) ) ;
#72 = LINE ( 'NONE', #48, #220 ) ;
#73 = CARTESIAN_POINT ( 'NONE',  ( 0.000000000000000000, 0.000000000000000000, 1.000000000000028644 ) ) ;
#74 = ADVANCED_FACE ( 'NONE', ( #156 ), #57, .T. ) ;
#75 = DIRECTION ( 'NONE',  ( 0.000000000000000000, 0.000000000000000000, 1.000000000000000000 ) ) ;
#76 = CIRCLE ( 'NONE', #37, 6.000000000000000888 ) ;
#77 = DIRECTION ( 'NONE',  ( 0.000000000000000000, 0.000000000000000000, 1.000000000000000000 ) ) ;
#78 = CALENDAR_DATE ( 2025, 20, 11 ) ;
#79 = EDGE_CURVE ( 'NONE', #215, #196, #53, .T. ) ;
#80 = DIRECTION ( 'NONE',  ( 0.000000000000000000, 0.000000000000000000, -1.000000000000000000 ) ) ;
#81 = AXIS2_PLACEMENT_3D ( 'NONE', #207, #75, #169 ) ;
#82 =( LENGTH_UNIT ( ) NAMED_UNIT ( * ) SI_UNIT ( .MILLI., .METRE. ) );
#83 = COORDINATED_UNIVERSAL_TIME_OFFSET ( 10, 0, .AHEAD. ) ;
#84 = ORIENTED_EDGE ( 'NONE', *, *, #11, .F. ) ;
#85 = COORDINATED_UNIVERSAL_TIME_OFFSET ( 10, 0, .AHEAD. ) ;
#86 = ORIENTED_EDGE ( 'NONE', *, *, #184, .T. ) ;
#87 = AXIS2_PLACEMENT_3D ( 'NONE', #73, #68, #241 ) ;
#88 = VERTEX_POINT ( 'NONE', #92 ) ;
#89 = EDGE_CURVE ( 'NONE', #88, #22, #25, .T. ) ;
#90 = ORIENTED_EDGE ( 'NONE', *, *, #184, .F. ) ;
#91 = AXIS2_PLACEMENT_3D ( 'NONE', #266, #250, #139 ) ;
#92 = CARTESIAN_POINT ( 'NONE',  ( 4.999999999999990230, 6.735557395310437093E-16, 150.0000000000000000 ) ) ;
#93 = DIRECTION ( 'NONE',  ( 0.7071067811865411334, 8.659560562354855205E-17, -0.7071067811865539010 ) ) ;
#94 = DIRECTION ( 'NONE',  ( -0.000000000000000000, -0.000000000000000000, -1.000000000000000000 ) ) ;
#95 = CC_DESIGN_PERSON_AND_ORGANIZATION_ASSIGNMENT ( #10, #104, ( #43 ) ) ;
#96 = CIRCLE ( 'NONE', #146, 6.000000000000000888 ) ;
#97 = CIRCLE ( 'NONE', #87, 6.000000000000000888 ) ;
#98 = DIRECTION ( 'NONE',  ( -0.000000000000000000, -0.000000000000000000, -1.000000000000000000 ) ) ;
#99 = EDGE_CURVE ( 'NONE', #215, #152, #181, .T. ) ;
#100 = DIRECTION ( 'NONE',  ( -1.000000000000000000, 0.000000000000000000, 0.000000000000000000 ) ) ;
#101 = DIRECTION ( 'NONE',  ( 0.000000000000000000, 0.000000000000000000, -1.000000000000000000 ) ) ;
#102 =( GEOMETRIC_REPRESENTATION_CONTEXT ( 3 ) GLOBAL_UNCERTAINTY_ASSIGNED_CONTEXT ( ( #154 ) ) GLOBAL_UNIT_ASSIGNED_CONTEXT ( ( #82, #142, #246 ) ) REPRESENTATION_CONTEXT ( 'NONE', 'WORKASPACE' ) );
#103 = APPROVAL_ROLE ( '' ) ;
#104 = PERSON_AND_ORGANIZATION_ROLE ( 'creator' ) ;
#105 = LINE ( 'NONE', #140, #247 ) ;
#106 = SECURITY_CLASSIFICATION_LEVEL ( 'unclassified' ) ;
#107 = PERSON_AND_ORGANIZATION ( #108, #173 ) ;
#108 = PERSON ( 'UNSPECIFIED', 'UNSPECIFIED', 'UNSPECIFIED', ('UNSPECIFIED'), ('UNSPECIFIED'), ('UNSPECIFIED') ) ;
#109 = AXIS2_PLACEMENT_3D ( 'NONE', #31, #118, #249 ) ;
#110 = EDGE_LOOP ( 'NONE', ( #176, #138, #47, #67 ) ) ;
#111 = ORIENTED_EDGE ( 'NONE', *, *, #274, .F. ) ;
#112 = EDGE_CURVE ( 'NONE', #257, #174, #70, .T. ) ;
#113 = DIRECTION ( 'NONE',  ( -0.000000000000000000, -0.000000000000000000, 1.000000000000000000 ) ) ;
#114 = CARTESIAN_POINT ( 'NONE',  ( 4.999999999999990230, 6.123233995736754449E-16, 150.0000000000000000 ) ) ;
#115 = FACE_OUTER_BOUND ( 'NONE', #213, .T. ) ;
#116 = CC_DESIGN_APPROVAL ( #218, ( #43 ) ) ;
#117 = DIRECTION ( 'NONE',  ( -1.000000000000000000, 0.000000000000000000, 0.000000000000000000 ) ) ;
#118 = DIRECTION ( 'NONE',  ( 0.000000000000000000, 0.000000000000000000, 1.000000000000000000 ) ) ;
#119 = FACE_OUTER_BOUND ( 'NONE', #21, .T. ) ;
#120 = VECTOR ( 'NONE', #133, 1000.000000000000114 ) ;
#121 = DATE_AND_TIME ( #78, #252 ) ;
#122 = EDGE_CURVE ( 'NONE', #174, #22, #76, .T. ) ;
#123 = COORDINATED_UNIVERSAL_TIME_OFFSET ( 10, 0, .AHEAD. ) ;
#124 = DATE_TIME_ROLE ( 'creation_date' ) ;
#125 = ORIENTED_EDGE ( 'NONE', *, *, #54, .T. ) ;
#126 = APPROVAL_ROLE ( '' ) ;
#127 = ORIENTED_EDGE ( 'NONE', *, *, #89, .T. ) ;
#128 = APPROVAL ( #41, 'UNSPECIFIED' ) ;
#129 = EDGE_LOOP ( 'NONE', ( #254, #62 ) ) ;
#130 = ORIENTED_EDGE ( 'NONE', *, *, #202, .F. ) ;
#131 = ADVANCED_FACE ( 'NONE', ( #24 ), #2, .F. ) ;
#132 = ADVANCED_BREP_SHAPE_REPRESENTATION ( 'M12-1_75-AT_REV_', ( #1, #109 ), #102 ) ;
#133 = DIRECTION ( 'NONE',  ( -0.7071067811865411334, 0.000000000000000000, -0.7071067811865539010 ) ) ;
#134 = LOCAL_TIME ( 11, 57, 2.000000000000000000, #83 ) ;
#135 = DIRECTION ( 'NONE',  ( 1.000000000000000000, 0.000000000000000000, 0.000000000000000000 ) ) ;
#136 = CARTESIAN_POINT ( 'NONE',  ( 0.000000000000000000, 0.000000000000000000, 0.000000000000000000 ) ) ;
#137 = FACE_OUTER_BOUND ( 'NONE', #64, .T. ) ;
#138 = ORIENTED_EDGE ( 'NONE', *, *, #262, .F. ) ;
#139 = DIRECTION ( 'NONE',  ( 1.000000000000000000, 0.000000000000000000, 0.000000000000000000 ) ) ;
#140 = CARTESIAN_POINT ( 'NONE',  ( 6.000000000000000888, 0.000000000000000000, 1.000000000000028644 ) ) ;
#141 = APPLICATION_PROTOCOL_DEFINITION ( 'international standard', 'config_control_design', 1994, #50 ) ;
#142 =( NAMED_UNIT ( * ) PLANE_ANGLE_UNIT ( ) SI_UNIT ( $, .RADIAN. ) );
#143 = SHAPE_DEFINITION_REPRESENTATION ( #151, #132 ) ;
#144 = CALENDAR_DATE ( 2025, 20, 11 ) ;
#145 = ORIENTED_EDGE ( 'NONE', *, *, #79, .T. ) ;
#146 = AXIS2_PLACEMENT_3D ( 'NONE', #275, #101, #163 ) ;
#147 = PERSON_AND_ORGANIZATION ( #108, #173 ) ;
#148 = EDGE_LOOP ( 'NONE', ( #42, #272, #84, #130 ) ) ;
#149 = ORIENTED_EDGE ( 'NONE', *, *, #122, .T. ) ;
#150 = CC_DESIGN_DATE_AND_TIME_ASSIGNMENT ( #39, #16, ( #9 ) ) ;
#151 = PRODUCT_DEFINITION_SHAPE ( 'NONE', 'NONE',  #43 ) ;
#152 = VERTEX_POINT ( 'NONE', #26 ) ;
#153 = VECTOR ( 'NONE', #93, 1000.000000000000114 ) ;
#154 = UNCERTAINTY_MEASURE_WITH_UNIT (LENGTH_MEASURE( 1.000000000000000082E-05 ), #82, 'distance_accuracy_value', 'NONE');
#155 = FACE_OUTER_BOUND ( 'NONE', #110, .T. ) ;
#156 = FACE_OUTER_BOUND ( 'NONE', #40, .T. ) ;
#157 = CONICAL_SURFACE ( 'NONE', #185, 4.999999999999990230, 0.7853981633974391752 ) ;
#158 = CC_DESIGN_APPROVAL ( #13, ( #9 ) ) ;
#159 = CARTESIAN_POINT ( 'NONE',  ( 0.000000000000000000, 0.000000000000000000, 1.000000000000028644 ) ) ;
#160 = ORIENTED_EDGE ( 'NONE', *, *, #89, .F. ) ;
#161 = CARTESIAN_POINT ( 'NONE',  ( 0.000000000000000000, 0.000000000000000000, 150.0000000000000000 ) ) ;
#162 = AXIS2_PLACEMENT_3D ( 'NONE', #27, #182, #199 ) ;
#163 = DIRECTION ( 'NONE',  ( 1.000000000000000000, 0.000000000000000000, 0.000000000000000000 ) ) ;
#164 = CARTESIAN_POINT ( 'NONE',  ( 0.000000000000000000, 0.000000000000000000, 150.0000000000000000 ) ) ;
#165 = PRODUCT_DEFINITION_FORMATION_WITH_SPECIFIED_SOURCE ( 'ANY', '', #197, .NOT_KNOWN. ) ;
#166 = DIRECTION ( 'NONE',  ( -1.000000000000000000, 0.000000000000000000, 0.000000000000000000 ) ) ;
#167 = APPROVAL_PERSON_ORGANIZATION ( #107, #13, #15 ) ;
#168 = PRODUCT_RELATED_PRODUCT_CATEGORY ( 'detail', '', ( #197 ) ) ;
#169 = DIRECTION ( 'NONE',  ( 1.000000000000000000, 0.000000000000000000, 0.000000000000000000 ) ) ;
#170 = PERSON_AND_ORGANIZATION ( #108, #173 ) ;
#171 = ORIENTED_EDGE ( 'NONE', *, *, #230, .T. ) ;
#172 = APPROVAL_DATE_TIME ( #212, #128 ) ;
#173 = ORGANIZATION ( 'UNSPECIFIED', 'UNSPECIFIED', '' ) ;
#174 = VERTEX_POINT ( 'NONE', #29 ) ;
#175 = CC_DESIGN_PERSON_AND_ORGANIZATION_ASSIGNMENT ( #147, #214, ( #165 ) ) ;
#176 = ORIENTED_EDGE ( 'NONE', *, *, #99, .F. ) ;
#177 = ADVANCED_FACE ( 'NONE', ( #115 ), #201, .T. ) ;
#178 = ORIENTED_EDGE ( 'NONE', *, *, #122, .F. ) ;
#179 = AXIS2_PLACEMENT_3D ( 'NONE', #159, #113, #237 ) ;
#180 = DIRECTION ( 'NONE',  ( -0.000000000000000000, -0.000000000000000000, -1.000000000000000000 ) ) ;
#181 = LINE ( 'NONE', #200, #228 ) ;
#182 = DIRECTION ( 'NONE',  ( 0.000000000000000000, 0.000000000000000000, 1.000000000000000000 ) ) ;
#183 = DIRECTION ( 'NONE',  ( -1.000000000000000000, 0.000000000000000000, 0.000000000000000000 ) ) ;
#184 = EDGE_CURVE ( 'NONE', #22, #174, #96, .T. ) ;
#185 = AXIS2_PLACEMENT_3D ( 'NONE', #205, #80, #166 ) ;
#186 = LINE ( 'NONE', #209, #23 ) ;
#187 = COORDINATED_UNIVERSAL_TIME_OFFSET ( 10, 0, .AHEAD. ) ;
#188 = DIRECTION ( 'NONE',  ( -0.000000000000000000, -0.000000000000000000, 1.000000000000000000 ) ) ;
#189 = ADVANCED_FACE ( 'NONE', ( #268 ), #198, .T. ) ;
#190 = CONICAL_SURFACE ( 'NONE', #179, 6.000000000000000888, 0.7853981633974457255 ) ;
#191 = CARTESIAN_POINT ( 'NONE',  ( 0.000000000000000000, 0.000000000000000000, 1.000000000000028644 ) ) ;
#192 = DATE_AND_TIME ( #211, #6 ) ;
#193 = APPROVAL_STATUS ( 'not_yet_approved' ) ;
#194 = DESIGN_CONTEXT ( 'detailed design', #222, 'design' ) ;
#195 = LOCAL_TIME ( 11, 57, 2.000000000000000000, #61 ) ;
#196 = VERTEX_POINT ( 'NONE', #227 ) ;
#197 = PRODUCT ( 'M12-1_75-AT_REV_', 'M12-1_75-AT_REV_', '', ( #56 ) ) ;
#198 = CONICAL_SURFACE ( 'NONE', #14, 6.000000000000000888, 0.7853981633974457255 ) ;
#199 = DIRECTION ( 'NONE',  ( 1.000000000000000000, 0.000000000000000000, -0.000000000000000000 ) ) ;
#200 = CARTESIAN_POINT ( 'NONE',  ( -6.000000000000000888, 7.347880794884120722E-16, 1.000000000000028644 ) ) ;
#201 = CYLINDRICAL_SURFACE ( 'NONE', #248, 6.000000000000000888 ) ;
#202 = EDGE_CURVE ( 'NONE', #196, #255, #105, .T. ) ;
#203 = CLOSED_SHELL ( 'NONE', ( #269, #189, #177, #46, #63, #131, #35, #74 ) ) ;
#204 = CARTESIAN_POINT ( 'NONE',  ( 0.000000000000000000, 0.000000000000000000, 1.000000000000028644 ) ) ;
#205 = CARTESIAN_POINT ( 'NONE',  ( 0.000000000000000000, 0.000000000000000000, 150.0000000000000000 ) ) ;
#206 = CC_DESIGN_APPROVAL ( #128, ( #165 ) ) ;
#207 = CARTESIAN_POINT ( 'NONE',  ( 0.000000000000000000, 0.000000000000000000, 150.0000000000000000 ) ) ;
#208 = APPROVAL_DATE_TIME ( #121, #218 ) ;
#209 = CARTESIAN_POINT ( 'NONE',  ( -6.000000000000000888, 0.000000000000000000, 150.0000000000000000 ) ) ;
#210 = CIRCLE ( 'NONE', #81, 4.999999999999990230 ) ;
#211 = CALENDAR_DATE ( 2025, 20, 11 ) ;
#212 = DATE_AND_TIME ( #144, #134 ) ;
#213 = EDGE_LOOP ( 'NONE', ( #149, #125, #216, #235 ) ) ;
#214 = PERSON_AND_ORGANIZATION_ROLE ( 'design_supplier' ) ;
#215 = VERTEX_POINT ( 'NONE', #226 ) ;
#216 = ORIENTED_EDGE ( 'NONE', *, *, #11, .T. ) ;
#217 = ORIENTED_EDGE ( 'NONE', *, *, #54, .F. ) ;
#218 = APPROVAL ( #34, 'UNSPECIFIED' ) ;
#219 = DIRECTION ( 'NONE',  ( 0.000000000000000000, 0.000000000000000000, -1.000000000000000000 ) ) ;
#220 = VECTOR ( 'NONE', #7, 1000.000000000000000 ) ;
#221 = DIRECTION ( 'NONE',  ( 1.000000000000000000, 0.000000000000000000, 0.000000000000000000 ) ) ;
#222 = APPLICATION_CONTEXT ( 'configuration controlled 3d designs of mechanical parts and assemblies' ) ;
#223 = DIRECTION ( 'NONE',  ( 0.000000000000000000, 0.000000000000000000, 1.000000000000000000 ) ) ;
#224 = CYLINDRICAL_SURFACE ( 'NONE', #18, 6.000000000000000888 ) ;
#225 = DIRECTION ( 'NONE',  ( 1.000000000000000000, 0.000000000000000000, 0.000000000000000000 ) ) ;
#226 = CARTESIAN_POINT ( 'NONE',  ( -4.999999999999977796, 6.735557395310429204E-16, 0.000000000000000000 ) ) ;
#227 = CARTESIAN_POINT ( 'NONE',  ( 4.999999999999977796, 0.000000000000000000, 0.000000000000000000 ) ) ;
#228 = VECTOR ( 'NONE', #260, 1000.000000000000000 ) ;
#229 = APPLICATION_PROTOCOL_DEFINITION ( 'international standard', 'config_control_design', 1994, #222 ) ;
#230 = EDGE_CURVE ( 'NONE', #174, #152, #186, .T. ) ;
#231 = APPROVAL_PERSON_ORGANIZATION ( #264, #218, #103 ) ;
#232 = PERSON_AND_ORGANIZATION_ROLE ( 'creator' ) ;
#233 = CC_DESIGN_PERSON_AND_ORGANIZATION_ASSIGNMENT ( #170, #36, ( #9 ) ) ;
#234 = CALENDAR_DATE ( 2025, 20, 11 ) ;
#235 = ORIENTED_EDGE ( 'NONE', *, *, #230, .F. ) ;
#236 = ORIENTED_EDGE ( 'NONE', *, *, #242, .F. ) ;
#237 = DIRECTION ( 'NONE',  ( 1.000000000000000000, 0.000000000000000000, 0.000000000000000000 ) ) ;
#238 = DIRECTION ( 'NONE',  ( -0.000000000000000000, -0.000000000000000000, 1.000000000000000000 ) ) ;
#239 = AXIS2_PLACEMENT_3D ( 'NONE', #161, #261, #100 ) ;
#240 = FACE_OUTER_BOUND ( 'NONE', #129, .T. ) ;
#241 = DIRECTION ( 'NONE',  ( 1.000000000000000000, 0.000000000000000000, 0.000000000000000000 ) ) ;
#242 = EDGE_CURVE ( 'NONE', #257, #88, #210, .T. ) ;
#243 = PLANE ( 'NONE',  #162 ) ;
#244 = DIRECTION ( 'NONE',  ( -0.000000000000000000, -0.000000000000000000, -1.000000000000000000 ) ) ;
#245 = DIRECTION ( 'NONE',  ( 1.000000000000000000, 0.000000000000000000, 0.000000000000000000 ) ) ;
#246 =( NAMED_UNIT ( * ) SI_UNIT ( $, .STERADIAN. ) SOLID_ANGLE_UNIT ( ) );
#247 = VECTOR ( 'NONE', #58, 1000.000000000000000 ) ;
#248 = AXIS2_PLACEMENT_3D ( 'NONE', #4, #98, #183 ) ;
#249 = DIRECTION ( 'NONE',  ( 1.000000000000000000, 0.000000000000000000, 0.000000000000000000 ) ) ;
#250 = DIRECTION ( 'NONE',  ( -0.000000000000000000, -0.000000000000000000, -1.000000000000000000 ) ) ;
#251 = CALENDAR_DATE ( 2025, 20, 11 ) ;
#252 = LOCAL_TIME ( 11, 57, 2.000000000000000000, #187 ) ;
#253 = PERSON_AND_ORGANIZATION ( #108, #173 ) ;
#254 = ORIENTED_EDGE ( 'NONE', *, *, #242, .T. ) ;
#255 = VERTEX_POINT ( 'NONE', #55 ) ;
#256 = ORIENTED_EDGE ( 'NONE', *, *, #262, .T. ) ;
#257 = VERTEX_POINT ( 'NONE', #30 ) ;
#258 = DIRECTION ( 'NONE',  ( 1.000000000000000000, 0.000000000000000000, -0.000000000000000000 ) ) ;
#259 = CARTESIAN_POINT ( 'NONE',  ( 0.000000000000000000, 0.000000000000000000, 148.9999999999999716 ) ) ;
#260 = DIRECTION ( 'NONE',  ( -0.7071067811865456854, 8.659560562354911904E-17, 0.7071067811865493491 ) ) ;
#261 = DIRECTION ( 'NONE',  ( 0.000000000000000000, 0.000000000000000000, -1.000000000000000000 ) ) ;
#262 = EDGE_CURVE ( 'NONE', #196, #215, #69, .T. ) ;
#263 = CARTESIAN_POINT ( 'NONE',  ( 0.000000000000000000, 0.000000000000000000, 0.000000000000000000 ) ) ;
#264 = PERSON_AND_ORGANIZATION ( #108, #173 ) ;
#265 = AXIS2_PLACEMENT_3D ( 'NONE', #263, #180, #135 ) ;
#266 = CARTESIAN_POINT ( 'NONE',  ( 0.000000000000000000, 0.000000000000000000, 0.000000000000000000 ) ) ;
#267 = CC_DESIGN_PERSON_AND_ORGANIZATION_ASSIGNMENT ( #253, #232, ( #165 ) ) ;
#268 = FACE_OUTER_BOUND ( 'NONE', #148, .T. ) ;
#269 = ADVANCED_FACE ( 'NONE', ( #119 ), #157, .T. ) ;
#270 = DIRECTION ( 'NONE',  ( 1.000000000000000000, 0.000000000000000000, 0.000000000000000000 ) ) ;
#271 = APPROVAL_DATE_TIME ( #192, #13 ) ;
#272 = ORIENTED_EDGE ( 'NONE', *, *, #99, .T. ) ;
#273 = DATE_AND_TIME ( #234, #195 ) ;
#274 = EDGE_CURVE ( 'NONE', #88, #257, #32, .T. ) ;
#275 = CARTESIAN_POINT ( 'NONE',  ( 0.000000000000000000, 0.000000000000000000, 148.9999999999999716 ) ) ;
ENDSEC;
END-ISO-10303-21;
