ISO-10303-21;
HEADER;
FILE_DESCRIPTION (( 'STEP AP203' ),
    '1' );
FILE_NAME ('M16  FW 304_REV_.step',
    '2026-03-04T03:10:05',
    ( '' ),
    ( '' ),
    'SwSTEP 2.0',
    'SolidWorks 2025',
    '' );
FILE_SCHEMA (( 'CONFIG_CONTROL_DESIGN' ));
ENDSEC;

DATA;
#1 = APPROVAL_STATUS ( 'not_yet_approved' ) ;
#2 = PERSON_AND_ORGANIZATION ( #201, #195 ) ;
#3 = CC_DESIGN_SECURITY_CLASSIFICATION ( #82, ( #214 ) ) ;
#4 = ORIENTED_EDGE ( 'NONE', *, *, #239, .F. ) ;
#5 = APPLICATION_CONTEXT ( 'configuration controlled 3d designs of mechanical parts and assemblies' ) ;
#6 = DESIGN_CONTEXT ( 'detailed design', #5, 'design' ) ;
#7 = ORIENTED_EDGE ( 'NONE', *, *, #244, .F. ) ;
#8 = ORIENTED_EDGE ( 'NONE', *, *, #31, .F. ) ;
#9 = CIRCLE ( 'NONE', #218, 8.500000000000000000 ) ;
#10 = CARTESIAN_POINT ( 'NONE',  ( 0.000000000000000000, -1.500000000000056843, 0.000000000000000000 ) ) ;
#11 = CARTESIAN_POINT ( 'NONE',  ( 1.040949779275250929E-15, -1.676329423594649386E-30, -8.500000000000000000 ) ) ;
#12 = CARTESIAN_POINT ( 'NONE',  ( -3.697785493223492838E-31, -1.500000000000056843, 15.00000000000000000 ) ) ;
#13 = EDGE_CURVE ( 'NONE', #231, #39, #118, .T. ) ;
#14 = FACE_BOUND ( 'NONE', #117, .T. ) ;
#15 =( LENGTH_UNIT ( ) NAMED_UNIT ( * ) SI_UNIT ( .MILLI., .METRE. ) );
#16 = APPLICATION_PROTOCOL_DEFINITION ( 'international standard', 'config_control_design', 1994, #223 ) ;
#17 = EDGE_CURVE ( 'NONE', #156, #231, #232, .T. ) ;
#18 = CALENDAR_DATE ( 2026, 4, 3 ) ;
#19 = CALENDAR_DATE ( 2026, 4, 3 ) ;
#20 = CIRCLE ( 'NONE', #47, 8.500000000000000000 ) ;
#21 = PERSON_AND_ORGANIZATION_ROLE ( 'design_supplier' ) ;
#22 = EDGE_LOOP ( 'NONE', ( #120, #234 ) ) ;
#23 = EDGE_CURVE ( 'NONE', #30, #205, #123, .T. ) ;
#24 = SHAPE_DEFINITION_REPRESENTATION ( #141, #217 ) ;
#25 = EDGE_LOOP ( 'NONE', ( #104, #208 ) ) ;
#26 = DIRECTION ( 'NONE',  ( -2.465190328815661892E-32, -1.972152263052529514E-31, 1.000000000000000000 ) ) ;
#27 = CARTESIAN_POINT ( 'NONE',  ( 0.000000000000000000, -1.500000000000056843, 0.000000000000000000 ) ) ;
#28 = DIRECTION ( 'NONE',  ( -2.465190328815661892E-32, -1.972152263052529514E-31, 1.000000000000000000 ) ) ;
#29 = AXIS2_PLACEMENT_3D ( 'NONE', #42, #193, #76 ) ;
#30 = VERTEX_POINT ( 'NONE', #140 ) ;
#31 = EDGE_CURVE ( 'NONE', #205, #30, #161, .T. ) ;
#32 = CARTESIAN_POINT ( 'NONE',  ( -3.697785493223492838E-31, -2.958228394578794270E-30, 15.00000000000000000 ) ) ;
#33 = DIRECTION ( 'NONE',  ( 0.000000000000000000, 0.000000000000000000, 1.000000000000000000 ) ) ;
#34 =( NAMED_UNIT ( * ) PLANE_ANGLE_UNIT ( ) SI_UNIT ( $, .RADIAN. ) );
#35 = EDGE_CURVE ( 'NONE', #231, #156, #139, .T. ) ;
#36 = FACE_OUTER_BOUND ( 'NONE', #230, .T. ) ;
#37 = PERSON_AND_ORGANIZATION ( #201, #195 ) ;
#38 = ORIENTED_EDGE ( 'NONE', *, *, #130, .T. ) ;
#39 = VERTEX_POINT ( 'NONE', #144 ) ;
#40 = CARTESIAN_POINT ( 'NONE',  ( -2.095411779493312608E-31, -1.676329423594650086E-30, 8.500000000000000000 ) ) ;
#41 = ORIENTED_EDGE ( 'NONE', *, *, #17, .F. ) ;
#42 = CARTESIAN_POINT ( 'NONE',  ( 0.000000000000000000, -1.500000000000056843, 0.000000000000000000 ) ) ;
#43 =( GEOMETRIC_REPRESENTATION_CONTEXT ( 3 ) GLOBAL_UNCERTAINTY_ASSIGNED_CONTEXT ( ( #77 ) ) GLOBAL_UNIT_ASSIGNED_CONTEXT ( ( #15, #34, #198 ) ) REPRESENTATION_CONTEXT ( 'NONE', 'WORKASPACE' ) );
#44 = DIRECTION ( 'NONE',  ( 1.041965476854142629E-31, 1.000000000000000000, -1.972152263052528638E-31 ) ) ;
#45 = DIRECTION ( 'NONE',  ( 2.465190328815661892E-32, 1.972152263052529514E-31, -1.000000000000000000 ) ) ;
#46 = DIRECTION ( 'NONE',  ( -2.465190328815661892E-32, -1.972152263052529514E-31, 1.000000000000000000 ) ) ;
#47 = AXIS2_PLACEMENT_3D ( 'NONE', #209, #181, #28 ) ;
#48 = APPROVAL_ROLE ( '' ) ;
#49 = PERSON_AND_ORGANIZATION ( #201, #195 ) ;
#50 = CALENDAR_DATE ( 2026, 4, 3 ) ;
#51 = APPROVAL_DATE_TIME ( #131, #137 ) ;
#52 = EDGE_CURVE ( 'NONE', #196, #95, #20, .T. ) ;
#53 = ORIENTED_EDGE ( 'NONE', *, *, #54, .F. ) ;
#54 = EDGE_CURVE ( 'NONE', #95, #196, #9, .T. ) ;
#55 = AXIS2_PLACEMENT_3D ( 'NONE', #10, #78, #158 ) ;
#56 = CARTESIAN_POINT ( 'NONE',  ( 0.000000000000000000, 0.000000000000000000, 0.000000000000000000 ) ) ;
#57 = DIRECTION ( 'NONE',  ( -2.465190328815661892E-32, -1.972152263052529514E-31, 1.000000000000000000 ) ) ;
#58 = ORIENTED_EDGE ( 'NONE', *, *, #54, .T. ) ;
#59 = LINE ( 'NONE', #32, #134 ) ;
#60 = CC_DESIGN_PERSON_AND_ORGANIZATION_ASSIGNMENT ( #204, #69, ( #214 ) ) ;
#61 = CC_DESIGN_APPROVAL ( #137, ( #214 ) ) ;
#62 = PLANE ( 'NONE',  #242 ) ;
#63 = DIRECTION ( 'NONE',  ( 1.041965476854142629E-31, 1.000000000000000000, -1.972152263052528638E-31 ) ) ;
#64 = CC_DESIGN_PERSON_AND_ORGANIZATION_ASSIGNMENT ( #49, #21, ( #214 ) ) ;
#65 = CARTESIAN_POINT ( 'NONE',  ( -2.095411779493312608E-31, -1.500000000000056843, 8.500000000000000000 ) ) ;
#66 = AXIS2_PLACEMENT_3D ( 'NONE', #68, #67, #184 ) ;
#67 = DIRECTION ( 'NONE',  ( 1.041965476854142629E-31, 1.000000000000000000, -1.972152263052528638E-31 ) ) ;
#68 = CARTESIAN_POINT ( 'NONE',  ( 0.000000000000000000, 0.000000000000000000, 0.000000000000000000 ) ) ;
#69 = PERSON_AND_ORGANIZATION_ROLE ( 'creator' ) ;
#70 = PERSON_AND_ORGANIZATION_ROLE ( 'creator' ) ;
#71 = ORIENTED_EDGE ( 'NONE', *, *, #13, .T. ) ;
#72 = ADVANCED_FACE ( 'NONE', ( #192 ), #102, .F. ) ;
#73 = AXIS2_PLACEMENT_3D ( 'NONE', #56, #44, #26 ) ;
#74 = APPROVAL_ROLE ( '' ) ;
#75 = ORIENTED_EDGE ( 'NONE', *, *, #35, .T. ) ;
#76 = DIRECTION ( 'NONE',  ( -2.465190328815661892E-32, 0.000000000000000000, 1.000000000000000000 ) ) ;
#77 = UNCERTAINTY_MEASURE_WITH_UNIT (LENGTH_MEASURE( 1.000000000000000082E-05 ), #15, 'distance_accuracy_value', 'NONE');
#78 = DIRECTION ( 'NONE',  ( 1.041965476854142629E-31, 1.000000000000000000, -1.972152263052528638E-31 ) ) ;
#79 = FACE_OUTER_BOUND ( 'NONE', #248, .T. ) ;
#80 = DIRECTION ( 'NONE',  ( 1.041965476854142629E-31, 1.000000000000000000, -1.972152263052528638E-31 ) ) ;
#81 = DIRECTION ( 'NONE',  ( 1.041965476854142629E-31, 1.000000000000000000, -1.972152263052528638E-31 ) ) ;
#82 = SECURITY_CLASSIFICATION ( '', '', #136 ) ;
#83 = CARTESIAN_POINT ( 'NONE',  ( 0.000000000000000000, 0.000000000000000000, 0.000000000000000000 ) ) ;
#84 = DIRECTION ( 'NONE',  ( -2.465190328815661892E-32, -1.972152263052529514E-31, 1.000000000000000000 ) ) ;
#85 = DIRECTION ( 'NONE',  ( -1.041965476854142410E-31, -1.000000000000000000, -1.972152263052529514E-31 ) ) ;
#86 = CLOSED_SHELL ( 'NONE', ( #173, #142, #72, #249, #169, #177 ) ) ;
#87 = LOCAL_TIME ( 14, 10, 5.000000000000000000, #226 ) ;
#88 = DIRECTION ( 'NONE',  ( 1.041965476854142629E-31, 1.000000000000000000, -1.972152263052528638E-31 ) ) ;
#89 = PERSON_AND_ORGANIZATION ( #201, #195 ) ;
#90 = DATE_TIME_ROLE ( 'creation_date' ) ;
#91 = VECTOR ( 'NONE', #236, 1000.000000000000000 ) ;
#92 = LOCAL_TIME ( 14, 10, 5.000000000000000000, #129 ) ;
#93 = ORIENTED_EDGE ( 'NONE', *, *, #17, .T. ) ;
#94 = PERSON_AND_ORGANIZATION ( #201, #195 ) ;
#95 = VERTEX_POINT ( 'NONE', #11 ) ;
#96 = CIRCLE ( 'NONE', #66, 15.00000000000000000 ) ;
#97 = PERSON_AND_ORGANIZATION_ROLE ( 'classification_officer' ) ;
#98 = ORIENTED_EDGE ( 'NONE', *, *, #244, .T. ) ;
#99 = DIRECTION ( 'NONE',  ( 1.041965476854142629E-31, 1.000000000000000000, -1.972152263052528638E-31 ) ) ;
#100 = DIRECTION ( 'NONE',  ( 1.041965476854142629E-31, 1.000000000000000000, -1.972152263052528638E-31 ) ) ;
#101 = AXIS2_PLACEMENT_3D ( 'NONE', #148, #85, #45 ) ;
#102 = CYLINDRICAL_SURFACE ( 'NONE', #73, 8.500000000000000000 ) ;
#103 = DIRECTION ( 'NONE',  ( 1.041965476854142629E-31, 1.000000000000000000, -1.972152263052528638E-31 ) ) ;
#104 = ORIENTED_EDGE ( 'NONE', *, *, #188, .T. ) ;
#105 = LINE ( 'NONE', #107, #237 ) ;
#106 = CARTESIAN_POINT ( 'NONE',  ( 0.000000000000000000, 0.000000000000000000, 0.000000000000000000 ) ) ;
#107 = CARTESIAN_POINT ( 'NONE',  ( 1.040949779275250929E-15, 1.676329423594649736E-30, -8.500000000000000000 ) ) ;
#108 = LOCAL_TIME ( 14, 10, 5.000000000000000000, #151 ) ;
#109 = CC_DESIGN_PERSON_AND_ORGANIZATION_ASSIGNMENT ( #147, #70, ( #199 ) ) ;
#110 = APPROVAL_DATE_TIME ( #128, #213 ) ;
#111 = CALENDAR_DATE ( 2026, 4, 3 ) ;
#112 = APPROVAL_PERSON_ORGANIZATION ( #94, #165, #74 ) ;
#113 = ORIENTED_EDGE ( 'NONE', *, *, #188, .F. ) ;
#114 = DATE_AND_TIME ( #50, #233 ) ;
#115 = APPROVAL_PERSON_ORGANIZATION ( #89, #213, #48 ) ;
#116 = CARTESIAN_POINT ( 'NONE',  ( 0.000000000000000000, -1.500000000000056843, 0.000000000000000000 ) ) ;
#117 = EDGE_LOOP ( 'NONE', ( #190, #53 ) ) ;
#118 = LINE ( 'NONE', #157, #91 ) ;
#119 = DIRECTION ( 'NONE',  ( -2.465190328815661892E-32, 0.000000000000000000, 1.000000000000000000 ) ) ;
#120 = ORIENTED_EDGE ( 'NONE', *, *, #31, .T. ) ;
#121 = CC_DESIGN_DATE_AND_TIME_ASSIGNMENT ( #154, #90, ( #199 ) ) ;
#122 = FACE_BOUND ( 'NONE', #22, .T. ) ;
#123 = CIRCLE ( 'NONE', #206, 8.500000000000000000 ) ;
#124 = FACE_OUTER_BOUND ( 'NONE', #25, .T. ) ;
#125 = CC_DESIGN_APPROVAL ( #165, ( #82 ) ) ;
#126 = CARTESIAN_POINT ( 'NONE',  ( 8.500000000000063949, -1.500000000000056843, 0.000000000000000000 ) ) ;
#127 = PRODUCT_RELATED_PRODUCT_CATEGORY ( 'detail', '', ( #210 ) ) ;
#128 = DATE_AND_TIME ( #18, #152 ) ;
#129 = COORDINATED_UNIVERSAL_TIME_OFFSET ( 10, 0, .AHEAD. ) ;
#130 = EDGE_CURVE ( 'NONE', #205, #196, #197, .T. ) ;
#131 = DATE_AND_TIME ( #245, #92 ) ;
#132 = EDGE_LOOP ( 'NONE', ( #207, #75, #227, #4 ) ) ;
#133 = DATE_TIME_ROLE ( 'classification_date' ) ;
#134 = VECTOR ( 'NONE', #211, 1000.000000000000000 ) ;
#135 = VERTEX_POINT ( 'NONE', #178 ) ;
#136 = SECURITY_CLASSIFICATION_LEVEL ( 'unclassified' ) ;
#137 = APPROVAL ( #1, 'UNSPECIFIED' ) ;
#138 = ORIENTED_EDGE ( 'NONE', *, *, #52, .T. ) ;
#139 = CIRCLE ( 'NONE', #246, 15.00000000000000000 ) ;
#140 = CARTESIAN_POINT ( 'NONE',  ( 1.040949779275250929E-15, -1.500000000000056843, -8.500000000000000000 ) ) ;
#141 = PRODUCT_DEFINITION_SHAPE ( 'NONE', 'NONE',  #199 ) ;
#142 = ADVANCED_FACE ( 'NONE', ( #79 ), #238, .F. ) ;
#143 = CARTESIAN_POINT ( 'NONE',  ( 0.000000000000000000, 0.000000000000000000, 0.000000000000000000 ) ) ;
#144 = CARTESIAN_POINT ( 'NONE',  ( 1.836970198721030772E-15, -2.958228394578793219E-30, -15.00000000000000000 ) ) ;
#145 = EDGE_LOOP ( 'NONE', ( #7, #8, #38, #138 ) ) ;
#146 = CC_DESIGN_DATE_AND_TIME_ASSIGNMENT ( #114, #133, ( #82 ) ) ;
#147 = PERSON_AND_ORGANIZATION ( #201, #195 ) ;
#148 = CARTESIAN_POINT ( 'NONE',  ( 8.499999999999952038, 0.000000000000000000, 0.000000000000000000 ) ) ;
#149 = PLANE ( 'NONE',  #101 ) ;
#150 = PERSON_AND_ORGANIZATION_ROLE ( 'design_owner' ) ;
#151 = COORDINATED_UNIVERSAL_TIME_OFFSET ( 10, 0, .AHEAD. ) ;
#152 = LOCAL_TIME ( 14, 10, 5.000000000000000000, #163 ) ;
#153 = ORIENTED_EDGE ( 'NONE', *, *, #130, .F. ) ;
#154 = DATE_AND_TIME ( #19, #87 ) ;
#155 = EDGE_CURVE ( 'NONE', #156, #135, #59, .T. ) ;
#156 = VERTEX_POINT ( 'NONE', #12 ) ;
#157 = CARTESIAN_POINT ( 'NONE',  ( 1.836970198721030772E-15, 2.958228394578793920E-30, -15.00000000000000000 ) ) ;
#158 = DIRECTION ( 'NONE',  ( -2.465190328815661892E-32, 0.000000000000000000, 1.000000000000000000 ) ) ;
#159 = FACE_OUTER_BOUND ( 'NONE', #132, .T. ) ;
#160 = CARTESIAN_POINT ( 'NONE',  ( 0.000000000000000000, 0.000000000000000000, 0.000000000000000000 ) ) ;
#161 = CIRCLE ( 'NONE', #55, 8.500000000000000000 ) ;
#162 = ORIENTED_EDGE ( 'NONE', *, *, #23, .F. ) ;
#163 = COORDINATED_UNIVERSAL_TIME_OFFSET ( 10, 0, .AHEAD. ) ;
#164 = CARTESIAN_POINT ( 'NONE',  ( 1.836970198721030772E-15, -1.500000000000056843, -15.00000000000000000 ) ) ;
#165 = APPROVAL ( #170, 'UNSPECIFIED' ) ;
#166 = MECHANICAL_CONTEXT ( 'NONE', #223, 'mechanical' ) ;
#167 = PERSON_AND_ORGANIZATION ( #201, #195 ) ;
#168 = CARTESIAN_POINT ( 'NONE',  ( 0.000000000000000000, 0.000000000000000000, 0.000000000000000000 ) ) ;
#169 = ADVANCED_FACE ( 'NONE', ( #159 ), #235, .T. ) ;
#170 = APPROVAL_STATUS ( 'not_yet_approved' ) ;
#171 = VECTOR ( 'NONE', #103, 1000.000000000000000 ) ;
#172 = CC_DESIGN_APPROVAL ( #213, ( #199 ) ) ;
#173 = ADVANCED_FACE ( 'NONE', ( #187 ), #240, .T. ) ;
#174 = CIRCLE ( 'NONE', #202, 15.00000000000000000 ) ;
#175 = ORIENTED_EDGE ( 'NONE', *, *, #35, .F. ) ;
#176 = CARTESIAN_POINT ( 'NONE',  ( 0.000000000000000000, 0.000000000000000000, 0.000000000000000000 ) ) ;
#177 = ADVANCED_FACE ( 'NONE', ( #14, #124 ), #149, .F. ) ;
#178 = CARTESIAN_POINT ( 'NONE',  ( -3.697785493223492838E-31, -2.958228394578794270E-30, 15.00000000000000000 ) ) ;
#179 = AXIS2_PLACEMENT_3D ( 'NONE', #160, #80, #57 ) ;
#180 = DIRECTION ( 'NONE',  ( 1.041965476854142629E-31, 1.000000000000000000, -1.972152263052528638E-31 ) ) ;
#181 = DIRECTION ( 'NONE',  ( 1.041965476854142629E-31, 1.000000000000000000, -1.972152263052528638E-31 ) ) ;
#182 = EDGE_LOOP ( 'NONE', ( #93, #71, #113, #215 ) ) ;
#183 = APPLICATION_PROTOCOL_DEFINITION ( 'international standard', 'config_control_design', 1994, #5 ) ;
#184 = DIRECTION ( 'NONE',  ( -2.465190328815661892E-32, -1.972152263052529514E-31, 1.000000000000000000 ) ) ;
#185 = DIRECTION ( 'NONE',  ( 1.000000000000000000, 0.000000000000000000, 0.000000000000000000 ) ) ;
#186 = AXIS2_PLACEMENT_3D ( 'NONE', #176, #81, #84 ) ;
#187 = FACE_OUTER_BOUND ( 'NONE', #182, .T. ) ;
#188 = EDGE_CURVE ( 'NONE', #135, #39, #174, .T. ) ;
#189 = DATE_AND_TIME ( #111, #108 ) ;
#190 = ORIENTED_EDGE ( 'NONE', *, *, #52, .F. ) ;
#191 = AXIS2_PLACEMENT_3D ( 'NONE', #106, #219, #46 ) ;
#192 = FACE_OUTER_BOUND ( 'NONE', #145, .T. ) ;
#193 = DIRECTION ( 'NONE',  ( 1.041965476854142629E-31, 1.000000000000000000, -1.972152263052528638E-31 ) ) ;
#194 = DIRECTION ( 'NONE',  ( -2.465190328815661892E-32, 0.000000000000000000, 1.000000000000000000 ) ) ;
#195 = ORGANIZATION ( 'UNSPECIFIED', 'UNSPECIFIED', '' ) ;
#196 = VERTEX_POINT ( 'NONE', #203 ) ;
#197 = LINE ( 'NONE', #40, #171 ) ;
#198 =( NAMED_UNIT ( * ) SI_UNIT ( $, .STERADIAN. ) SOLID_ANGLE_UNIT ( ) );
#199 = PRODUCT_DEFINITION ( 'UNKNOWN', '', #214, #6 ) ;
#200 = APPROVAL_PERSON_ORGANIZATION ( #2, #137, #225 ) ;
#201 = PERSON ( 'UNSPECIFIED', 'UNSPECIFIED', 'UNSPECIFIED', ('UNSPECIFIED'), ('UNSPECIFIED'), ('UNSPECIFIED') ) ;
#202 = AXIS2_PLACEMENT_3D ( 'NONE', #83, #63, #243 ) ;
#203 = CARTESIAN_POINT ( 'NONE',  ( -2.095411779493312608E-31, -1.676329423594650086E-30, 8.500000000000000000 ) ) ;
#204 = PERSON_AND_ORGANIZATION ( #201, #195 ) ;
#205 = VERTEX_POINT ( 'NONE', #65 ) ;
#206 = AXIS2_PLACEMENT_3D ( 'NONE', #116, #180, #194 ) ;
#207 = ORIENTED_EDGE ( 'NONE', *, *, #13, .F. ) ;
#208 = ORIENTED_EDGE ( 'NONE', *, *, #239, .T. ) ;
#209 = CARTESIAN_POINT ( 'NONE',  ( 0.000000000000000000, 0.000000000000000000, 0.000000000000000000 ) ) ;
#210 = PRODUCT ( 'M16  FW 304_REV_', 'M16  FW 304_REV_', '', ( #166 ) ) ;
#211 = DIRECTION ( 'NONE',  ( 1.041965476854142629E-31, 1.000000000000000000, -1.972152263052528638E-31 ) ) ;
#212 = DIRECTION ( 'NONE',  ( -2.465190328815661892E-32, -1.972152263052529514E-31, 1.000000000000000000 ) ) ;
#213 = APPROVAL ( #221, 'UNSPECIFIED' ) ;
#214 = PRODUCT_DEFINITION_FORMATION_WITH_SPECIFIED_SOURCE ( 'ANY', '', #210, .NOT_KNOWN. ) ;
#215 = ORIENTED_EDGE ( 'NONE', *, *, #155, .F. ) ;
#216 = DIRECTION ( 'NONE',  ( -2.465190328815661892E-32, -1.972152263052529514E-31, 1.000000000000000000 ) ) ;
#217 = ADVANCED_BREP_SHAPE_REPRESENTATION ( 'M16  FW 304_REV_', ( #220, #228 ), #43 ) ;
#218 = AXIS2_PLACEMENT_3D ( 'NONE', #143, #100, #212 ) ;
#219 = DIRECTION ( 'NONE',  ( 1.041965476854142629E-31, 1.000000000000000000, -1.972152263052528638E-31 ) ) ;
#220 = MANIFOLD_SOLID_BREP ( 'Revolve', #86 ) ;
#221 = APPROVAL_STATUS ( 'not_yet_approved' ) ;
#222 = CC_DESIGN_PERSON_AND_ORGANIZATION_ASSIGNMENT ( #37, #97, ( #82 ) ) ;
#223 = APPLICATION_CONTEXT ( 'configuration controlled 3d designs of mechanical parts and assemblies' ) ;
#224 = APPROVAL_DATE_TIME ( #189, #165 ) ;
#225 = APPROVAL_ROLE ( '' ) ;
#226 = COORDINATED_UNIVERSAL_TIME_OFFSET ( 10, 0, .AHEAD. ) ;
#227 = ORIENTED_EDGE ( 'NONE', *, *, #155, .T. ) ;
#228 = AXIS2_PLACEMENT_3D ( 'NONE', #168, #33, #185 ) ;
#229 = CC_DESIGN_PERSON_AND_ORGANIZATION_ASSIGNMENT ( #167, #150, ( #210 ) ) ;
#230 = EDGE_LOOP ( 'NONE', ( #41, #175 ) ) ;
#231 = VERTEX_POINT ( 'NONE', #164 ) ;
#232 = CIRCLE ( 'NONE', #29, 15.00000000000000000 ) ;
#233 = LOCAL_TIME ( 14, 10, 5.000000000000000000, #247 ) ;
#234 = ORIENTED_EDGE ( 'NONE', *, *, #23, .T. ) ;
#235 = CYLINDRICAL_SURFACE ( 'NONE', #186, 15.00000000000000000 ) ;
#236 = DIRECTION ( 'NONE',  ( 1.041965476854142629E-31, 1.000000000000000000, -1.972152263052528638E-31 ) ) ;
#237 = VECTOR ( 'NONE', #88, 1000.000000000000000 ) ;
#238 = CYLINDRICAL_SURFACE ( 'NONE', #179, 8.500000000000000000 ) ;
#239 = EDGE_CURVE ( 'NONE', #39, #135, #96, .T. ) ;
#240 = CYLINDRICAL_SURFACE ( 'NONE', #191, 15.00000000000000000 ) ;
#241 = DIRECTION ( 'NONE',  ( 1.041965476854142410E-31, 1.000000000000000000, 1.972152263052529514E-31 ) ) ;
#242 = AXIS2_PLACEMENT_3D ( 'NONE', #126, #241, #216 ) ;
#243 = DIRECTION ( 'NONE',  ( -2.465190328815661892E-32, -1.972152263052529514E-31, 1.000000000000000000 ) ) ;
#244 = EDGE_CURVE ( 'NONE', #30, #95, #105, .T. ) ;
#245 = CALENDAR_DATE ( 2026, 4, 3 ) ;
#246 = AXIS2_PLACEMENT_3D ( 'NONE', #27, #99, #119 ) ;
#247 = COORDINATED_UNIVERSAL_TIME_OFFSET ( 10, 0, .AHEAD. ) ;
#248 = EDGE_LOOP ( 'NONE', ( #162, #98, #58, #153 ) ) ;
#249 = ADVANCED_FACE ( 'NONE', ( #36, #122 ), #62, .F. ) ;
ENDSEC;
END-ISO-10303-21;
