ISO-10303-21;
HEADER;
FILE_DESCRIPTION (( 'STEP AP203' ),
    '1' );
FILE_NAME ('M16 FW HT ZP_REV_.step',
    '2025-11-20T00:56:56',
    ( '' ),
    ( '' ),
    'SwSTEP 2.0',
    'SolidWorks 2025',
    '' );
FILE_SCHEMA (( 'CONFIG_CONTROL_DESIGN' ));
ENDSEC;

DATA;
#1 = LOCAL_TIME ( 11, 56, 56.00000000000000000, #159 ) ;
#2 = DIRECTION ( 'NONE',  ( 0.000000000000000000, -1.000000000000000000, 0.000000000000000000 ) ) ;
#3 = CC_DESIGN_PERSON_AND_ORGANIZATION_ASSIGNMENT ( #202, #76, ( #145 ) ) ;
#4 = CC_DESIGN_SECURITY_CLASSIFICATION ( #103, ( #145 ) ) ;
#5 = PERSON_AND_ORGANIZATION ( #244, #91 ) ;
#6 = EDGE_LOOP ( 'NONE', ( #190, #136, #22, #208 ) ) ;
#7 = PRODUCT_DEFINITION ( 'UNKNOWN', '', #145, #82 ) ;
#8 = ORIENTED_EDGE ( 'NONE', *, *, #171, .T. ) ;
#9 = DIRECTION ( 'NONE',  ( -0.000000000000000000, 1.000000000000000000, 0.000000000000000000 ) ) ;
#10 = ADVANCED_FACE ( 'NONE', ( #41, #118 ), #185, .F. ) ;
#11 = ORIENTED_EDGE ( 'NONE', *, *, #177, .F. ) ;
#12 = CARTESIAN_POINT ( 'NONE',  ( 0.000000000000000000, 0.000000000000000000, 8.750000000000000000 ) ) ;
#13 = CIRCLE ( 'NONE', #231, 8.750000000000000000 ) ;
#14 = FACE_OUTER_BOUND ( 'NONE', #239, .T. ) ;
#15 = CYLINDRICAL_SURFACE ( 'NONE', #137, 15.00000000000000000 ) ;
#16 = DIRECTION ( 'NONE',  ( 0.000000000000000000, 0.000000000000000000, 1.000000000000000000 ) ) ;
#17 = APPROVAL_PERSON_ORGANIZATION ( #42, #148, #139 ) ;
#18 = DIRECTION ( 'NONE',  ( 0.000000000000000000, 0.000000000000000000, 1.000000000000000000 ) ) ;
#19 = DIRECTION ( 'NONE',  ( 0.000000000000000000, 0.000000000000000000, 1.000000000000000000 ) ) ;
#20 = PERSON_AND_ORGANIZATION ( #244, #91 ) ;
#21 = EDGE_CURVE ( 'NONE', #45, #80, #149, .T. ) ;
#22 = ORIENTED_EDGE ( 'NONE', *, *, #242, .T. ) ;
#23 = DATE_TIME_ROLE ( 'classification_date' ) ;
#24 = LOCAL_TIME ( 11, 56, 56.00000000000000000, #55 ) ;
#25 = PRODUCT_RELATED_PRODUCT_CATEGORY ( 'detail', '', ( #96 ) ) ;
#26 = FACE_OUTER_BOUND ( 'NONE', #6, .T. ) ;
#27 = CIRCLE ( 'NONE', #102, 8.750000000000000000 ) ;
#28 = CARTESIAN_POINT ( 'NONE',  ( 1.071565949253934124E-15, 0.000000000000000000, -8.750000000000000000 ) ) ;
#29 = DIRECTION ( 'NONE',  ( 0.000000000000000000, 0.000000000000000000, 1.000000000000000000 ) ) ;
#30 = DIRECTION ( 'NONE',  ( 0.000000000000000000, 0.000000000000000000, 1.000000000000000000 ) ) ;
#31 = CARTESIAN_POINT ( 'NONE',  ( 1.836970198721029589E-15, 0.000000000000000000, -15.00000000000000000 ) ) ;
#32 = VECTOR ( 'NONE', #113, 1000.000000000000000 ) ;
#33 = APPROVAL_STATUS ( 'not_yet_approved' ) ;
#34 = ADVANCED_FACE ( 'NONE', ( #192 ), #214, .F. ) ;
#35 = AXIS2_PLACEMENT_3D ( 'NONE', #152, #50, #16 ) ;
#36 = DIRECTION ( 'NONE',  ( -0.000000000000000000, 1.000000000000000000, -0.000000000000000000 ) ) ;
#37 = LINE ( 'NONE', #176, #32 ) ;
#38 = DATE_AND_TIME ( #162, #1 ) ;
#39 = APPLICATION_CONTEXT ( 'configuration controlled 3d designs of mechanical parts and assemblies' ) ;
#40 = VERTEX_POINT ( 'NONE', #47 ) ;
#41 = FACE_OUTER_BOUND ( 'NONE', #203, .T. ) ;
#42 = PERSON_AND_ORGANIZATION ( #244, #91 ) ;
#43 = APPROVAL ( #93, 'UNSPECIFIED' ) ;
#44 = ORIENTED_EDGE ( 'NONE', *, *, #156, .F. ) ;
#45 = VERTEX_POINT ( 'NONE', #31 ) ;
#46 = ADVANCED_FACE ( 'NONE', ( #170 ), #68, .F. ) ;
#47 = CARTESIAN_POINT ( 'NONE',  ( 0.000000000000000000, -3.000000000000000000, 8.750000000000000000 ) ) ;
#48 = AXIS2_PLACEMENT_3D ( 'NONE', #146, #65, #18 ) ;
#49 = CARTESIAN_POINT ( 'NONE',  ( 0.000000000000000000, -3.000000000000000000, 0.000000000000000000 ) ) ;
#50 = DIRECTION ( 'NONE',  ( -0.000000000000000000, 1.000000000000000000, -0.000000000000000000 ) ) ;
#51 = DIRECTION ( 'NONE',  ( 0.000000000000000000, 0.000000000000000000, 1.000000000000000000 ) ) ;
#52 = LINE ( 'NONE', #28, #173 ) ;
#53 =( NAMED_UNIT ( * ) SI_UNIT ( $, .STERADIAN. ) SOLID_ANGLE_UNIT ( ) );
#54 = APPROVAL_PERSON_ORGANIZATION ( #20, #43, #72 ) ;
#55 = COORDINATED_UNIVERSAL_TIME_OFFSET ( 10, 0, .AHEAD. ) ;
#56 = ORIENTED_EDGE ( 'NONE', *, *, #197, .F. ) ;
#57 = AXIS2_PLACEMENT_3D ( 'NONE', #232, #216, #29 ) ;
#58 = CC_DESIGN_APPROVAL ( #43, ( #7 ) ) ;
#59 = PERSON_AND_ORGANIZATION_ROLE ( 'design_supplier' ) ;
#60 = VERTEX_POINT ( 'NONE', #128 ) ;
#61 = ORIENTED_EDGE ( 'NONE', *, *, #242, .F. ) ;
#62 = DIRECTION ( 'NONE',  ( -0.000000000000000000, 1.000000000000000000, -0.000000000000000000 ) ) ;
#63 = FACE_OUTER_BOUND ( 'NONE', #81, .T. ) ;
#64 = CIRCLE ( 'NONE', #247, 8.750000000000000000 ) ;
#65 = DIRECTION ( 'NONE',  ( -0.000000000000000000, 1.000000000000000000, -0.000000000000000000 ) ) ;
#66 = APPROVAL_PERSON_ORGANIZATION ( #175, #126, #111 ) ;
#67 = DIRECTION ( 'NONE',  ( -0.000000000000000000, 1.000000000000000000, -0.000000000000000000 ) ) ;
#68 = CYLINDRICAL_SURFACE ( 'NONE', #48, 8.750000000000000000 ) ;
#69 = AXIS2_PLACEMENT_3D ( 'NONE', #49, #246, #194 ) ;
#70 = CC_DESIGN_APPROVAL ( #148, ( #103 ) ) ;
#71 = DIRECTION ( 'NONE',  ( 1.000000000000000000, 0.000000000000000000, 0.000000000000000000 ) ) ;
#72 = APPROVAL_ROLE ( '' ) ;
#73 = DATE_TIME_ROLE ( 'creation_date' ) ;
#74 = CC_DESIGN_PERSON_AND_ORGANIZATION_ASSIGNMENT ( #221, #219, ( #96 ) ) ;
#75 = ORIENTED_EDGE ( 'NONE', *, *, #156, .T. ) ;
#76 = PERSON_AND_ORGANIZATION_ROLE ( 'creator' ) ;
#77 = VECTOR ( 'NONE', #36, 1000.000000000000000 ) ;
#78 = PERSON_AND_ORGANIZATION_ROLE ( 'classification_officer' ) ;
#79 = CALENDAR_DATE ( 2025, 20, 11 ) ;
#80 = VERTEX_POINT ( 'NONE', #229 ) ;
#81 = EDGE_LOOP ( 'NONE', ( #8, #119 ) ) ;
#82 = DESIGN_CONTEXT ( 'detailed design', #101, 'design' ) ;
#83 = DIRECTION ( 'NONE',  ( -0.000000000000000000, 1.000000000000000000, -0.000000000000000000 ) ) ;
#84 = CC_DESIGN_DATE_AND_TIME_ASSIGNMENT ( #224, #23, ( #103 ) ) ;
#85 = DIRECTION ( 'NONE',  ( 0.000000000000000000, 0.000000000000000000, 1.000000000000000000 ) ) ;
#86 = DIRECTION ( 'NONE',  ( -0.000000000000000000, 1.000000000000000000, -0.000000000000000000 ) ) ;
#87 = CARTESIAN_POINT ( 'NONE',  ( 0.000000000000000000, -3.000000000000000000, 0.000000000000000000 ) ) ;
#88 = CARTESIAN_POINT ( 'NONE',  ( 0.000000000000000000, -3.000000000000000000, 0.000000000000000000 ) ) ;
#89 = DATE_AND_TIME ( #196, #209 ) ;
#90 = COORDINATED_UNIVERSAL_TIME_OFFSET ( 10, 0, .AHEAD. ) ;
#91 = ORGANIZATION ( 'UNSPECIFIED', 'UNSPECIFIED', '' ) ;
#92 = DATE_AND_TIME ( #178, #150 ) ;
#93 = APPROVAL_STATUS ( 'not_yet_approved' ) ;
#94 = EDGE_CURVE ( 'NONE', #223, #60, #199, .T. ) ;
#95 = APPROVAL_DATE_TIME ( #92, #43 ) ;
#96 = PRODUCT ( 'M16 FW HT ZP_REV_', 'M16 FW HT ZP_REV_', '', ( #198 ) ) ;
#97 = ORIENTED_EDGE ( 'NONE', *, *, #187, .F. ) ;
#98 = APPROVAL_DATE_TIME ( #38, #148 ) ;
#99 = CC_DESIGN_DATE_AND_TIME_ASSIGNMENT ( #179, #73, ( #7 ) ) ;
#100 = VERTEX_POINT ( 'NONE', #110 ) ;
#101 = APPLICATION_CONTEXT ( 'configuration controlled 3d designs of mechanical parts and assemblies' ) ;
#102 = AXIS2_PLACEMENT_3D ( 'NONE', #88, #125, #245 ) ;
#103 = SECURITY_CLASSIFICATION ( '', '', #135 ) ;
#104 = ORIENTED_EDGE ( 'NONE', *, *, #205, .T. ) ;
#105 = CARTESIAN_POINT ( 'NONE',  ( 0.000000000000000000, 0.000000000000000000, 0.000000000000000000 ) ) ;
#106 = DIRECTION ( 'NONE',  ( 0.000000000000000000, 0.000000000000000000, 1.000000000000000000 ) ) ;
#107 = EDGE_CURVE ( 'NONE', #60, #223, #230, .T. ) ;
#108 = DIRECTION ( 'NONE',  ( 0.000000000000000000, 0.000000000000000000, 1.000000000000000000 ) ) ;
#109 = DIRECTION ( 'NONE',  ( 0.000000000000000000, 0.000000000000000000, 1.000000000000000000 ) ) ;
#110 = CARTESIAN_POINT ( 'NONE',  ( 1.071565949253934124E-15, -3.000000000000000000, -8.750000000000000000 ) ) ;
#111 = APPROVAL_ROLE ( '' ) ;
#112 = ADVANCED_FACE ( 'NONE', ( #14 ), #15, .T. ) ;
#113 = DIRECTION ( 'NONE',  ( -0.000000000000000000, 1.000000000000000000, -0.000000000000000000 ) ) ;
#114 = CIRCLE ( 'NONE', #35, 15.00000000000000000 ) ;
#115 = AXIS2_PLACEMENT_3D ( 'NONE', #193, #2, #217 ) ;
#116 = AXIS2_PLACEMENT_3D ( 'NONE', #234, #67, #109 ) ;
#117 = EDGE_LOOP ( 'NONE', ( #11, #75, #181, #97 ) ) ;
#118 = FACE_BOUND ( 'NONE', #160, .T. ) ;
#119 = ORIENTED_EDGE ( 'NONE', *, *, #21, .T. ) ;
#120 = AXIS2_PLACEMENT_3D ( 'NONE', #158, #19, #71 ) ;
#121 = SHAPE_DEFINITION_REPRESENTATION ( #182, #144 ) ;
#122 = ORIENTED_EDGE ( 'NONE', *, *, #177, .T. ) ;
#123 = CARTESIAN_POINT ( 'NONE',  ( 0.000000000000000000, 0.000000000000000000, 0.000000000000000000 ) ) ;
#124 = VECTOR ( 'NONE', #83, 1000.000000000000000 ) ;
#125 = DIRECTION ( 'NONE',  ( -0.000000000000000000, 1.000000000000000000, -0.000000000000000000 ) ) ;
#126 = APPROVAL ( #33, 'UNSPECIFIED' ) ;
#127 = CARTESIAN_POINT ( 'NONE',  ( 0.000000000000000000, 0.000000000000000000, 0.000000000000000000 ) ) ;
#128 = CARTESIAN_POINT ( 'NONE',  ( 1.836970198721029589E-15, -3.000000000000000000, -15.00000000000000000 ) ) ;
#129 = LINE ( 'NONE', #155, #77 ) ;
#130 =( LENGTH_UNIT ( ) NAMED_UNIT ( * ) SI_UNIT ( .MILLI., .METRE. ) );
#131 = CARTESIAN_POINT ( 'NONE',  ( 0.000000000000000000, -3.000000000000000000, 15.00000000000000000 ) ) ;
#132 = ADVANCED_FACE ( 'NONE', ( #26 ), #212, .T. ) ;
#133 = CALENDAR_DATE ( 2025, 20, 11 ) ;
#134 = EDGE_CURVE ( 'NONE', #40, #100, #27, .T. ) ;
#135 = SECURITY_CLASSIFICATION_LEVEL ( 'unclassified' ) ;
#136 = ORIENTED_EDGE ( 'NONE', *, *, #107, .T. ) ;
#137 = AXIS2_PLACEMENT_3D ( 'NONE', #195, #215, #30 ) ;
#138 = AXIS2_PLACEMENT_3D ( 'NONE', #167, #243, #169 ) ;
#139 = APPROVAL_ROLE ( '' ) ;
#140 = ORIENTED_EDGE ( 'NONE', *, *, #205, .F. ) ;
#141 = VERTEX_POINT ( 'NONE', #249 ) ;
#142 = PERSON_AND_ORGANIZATION ( #244, #91 ) ;
#143 = VERTEX_POINT ( 'NONE', #153 ) ;
#144 = ADVANCED_BREP_SHAPE_REPRESENTATION ( 'M16 FW HT ZP_REV_', ( #206, #120 ), #174 ) ;
#145 = PRODUCT_DEFINITION_FORMATION_WITH_SPECIFIED_SOURCE ( 'ANY', '', #96, .NOT_KNOWN. ) ;
#146 = CARTESIAN_POINT ( 'NONE',  ( 0.000000000000000000, 0.000000000000000000, 0.000000000000000000 ) ) ;
#147 = PLANE ( 'NONE',  #115 ) ;
#148 = APPROVAL ( #204, 'UNSPECIFIED' ) ;
#149 = CIRCLE ( 'NONE', #116, 15.00000000000000000 ) ;
#150 = LOCAL_TIME ( 11, 56, 56.00000000000000000, #237 ) ;
#151 = DIRECTION ( 'NONE',  ( 0.000000000000000000, 0.000000000000000000, 1.000000000000000000 ) ) ;
#152 = CARTESIAN_POINT ( 'NONE',  ( 0.000000000000000000, 0.000000000000000000, 0.000000000000000000 ) ) ;
#153 = CARTESIAN_POINT ( 'NONE',  ( 0.000000000000000000, 0.000000000000000000, 8.750000000000000000 ) ) ;
#154 = CC_DESIGN_PERSON_AND_ORGANIZATION_ASSIGNMENT ( #142, #59, ( #145 ) ) ;
#155 = CARTESIAN_POINT ( 'NONE',  ( 1.836970198721029589E-15, 0.000000000000000000, -15.00000000000000000 ) ) ;
#156 = EDGE_CURVE ( 'NONE', #100, #141, #52, .T. ) ;
#157 = PERSON_AND_ORGANIZATION_ROLE ( 'creator' ) ;
#158 = CARTESIAN_POINT ( 'NONE',  ( 0.000000000000000000, 0.000000000000000000, 0.000000000000000000 ) ) ;
#159 = COORDINATED_UNIVERSAL_TIME_OFFSET ( 10, 0, .AHEAD. ) ;
#160 = EDGE_LOOP ( 'NONE', ( #163, #122 ) ) ;
#161 = ORIENTED_EDGE ( 'NONE', *, *, #171, .F. ) ;
#162 = CALENDAR_DATE ( 2025, 20, 11 ) ;
#163 = ORIENTED_EDGE ( 'NONE', *, *, #134, .T. ) ;
#164 = ORIENTED_EDGE ( 'NONE', *, *, #107, .F. ) ;
#165 = ORIENTED_EDGE ( 'NONE', *, *, #187, .T. ) ;
#166 = AXIS2_PLACEMENT_3D ( 'NONE', #127, #228, #151 ) ;
#167 = CARTESIAN_POINT ( 'NONE',  ( 0.000000000000000000, 0.000000000000000000, 0.000000000000000000 ) ) ;
#168 = FACE_BOUND ( 'NONE', #241, .T. ) ;
#169 = DIRECTION ( 'NONE',  ( 0.000000000000000000, 0.000000000000000000, 1.000000000000000000 ) ) ;
#170 = FACE_OUTER_BOUND ( 'NONE', #184, .T. ) ;
#171 = EDGE_CURVE ( 'NONE', #80, #45, #114, .T. ) ;
#172 = APPROVAL_DATE_TIME ( #89, #126 ) ;
#173 = VECTOR ( 'NONE', #86, 1000.000000000000000 ) ;
#174 =( GEOMETRIC_REPRESENTATION_CONTEXT ( 3 ) GLOBAL_UNCERTAINTY_ASSIGNED_CONTEXT ( ( #226 ) ) GLOBAL_UNIT_ASSIGNED_CONTEXT ( ( #130, #200, #53 ) ) REPRESENTATION_CONTEXT ( 'NONE', 'WORKASPACE' ) );
#175 = PERSON_AND_ORGANIZATION ( #244, #91 ) ;
#176 = CARTESIAN_POINT ( 'NONE',  ( 0.000000000000000000, 0.000000000000000000, 15.00000000000000000 ) ) ;
#177 = EDGE_CURVE ( 'NONE', #100, #40, #64, .T. ) ;
#178 = CALENDAR_DATE ( 2025, 20, 11 ) ;
#179 = DATE_AND_TIME ( #133, #24 ) ;
#180 = AXIS2_PLACEMENT_3D ( 'NONE', #189, #9, #85 ) ;
#181 = ORIENTED_EDGE ( 'NONE', *, *, #197, .T. ) ;
#182 = PRODUCT_DEFINITION_SHAPE ( 'NONE', 'NONE',  #7 ) ;
#183 = CC_DESIGN_PERSON_AND_ORGANIZATION_ASSIGNMENT ( #201, #157, ( #7 ) ) ;
#184 = EDGE_LOOP ( 'NONE', ( #44, #210, #165, #104 ) ) ;
#185 = PLANE ( 'NONE',  #180 ) ;
#186 = AXIS2_PLACEMENT_3D ( 'NONE', #105, #191, #108 ) ;
#187 = EDGE_CURVE ( 'NONE', #40, #143, #211, .T. ) ;
#188 = CIRCLE ( 'NONE', #138, 8.750000000000000000 ) ;
#189 = CARTESIAN_POINT ( 'NONE',  ( 8.750000000000000000, -3.000000000000000000, 0.000000000000000000 ) ) ;
#190 = ORIENTED_EDGE ( 'NONE', *, *, #248, .F. ) ;
#191 = DIRECTION ( 'NONE',  ( -0.000000000000000000, 1.000000000000000000, -0.000000000000000000 ) ) ;
#192 = FACE_OUTER_BOUND ( 'NONE', #117, .T. ) ;
#193 = CARTESIAN_POINT ( 'NONE',  ( 8.750000000000000000, 0.000000000000000000, 0.000000000000000000 ) ) ;
#194 = DIRECTION ( 'NONE',  ( 0.000000000000000000, 0.000000000000000000, 1.000000000000000000 ) ) ;
#195 = CARTESIAN_POINT ( 'NONE',  ( 0.000000000000000000, 0.000000000000000000, 0.000000000000000000 ) ) ;
#196 = CALENDAR_DATE ( 2025, 20, 11 ) ;
#197 = EDGE_CURVE ( 'NONE', #141, #143, #188, .T. ) ;
#198 = MECHANICAL_CONTEXT ( 'NONE', #39, 'mechanical' ) ;
#199 = CIRCLE ( 'NONE', #57, 15.00000000000000000 ) ;
#200 =( NAMED_UNIT ( * ) PLANE_ANGLE_UNIT ( ) SI_UNIT ( $, .RADIAN. ) );
#201 = PERSON_AND_ORGANIZATION ( #244, #91 ) ;
#202 = PERSON_AND_ORGANIZATION ( #244, #91 ) ;
#203 = EDGE_LOOP ( 'NONE', ( #238, #164 ) ) ;
#204 = APPROVAL_STATUS ( 'not_yet_approved' ) ;
#205 = EDGE_CURVE ( 'NONE', #143, #141, #13, .T. ) ;
#206 = MANIFOLD_SOLID_BREP ( 'Revolve', #225 ) ;
#207 = CC_DESIGN_PERSON_AND_ORGANIZATION_ASSIGNMENT ( #5, #78, ( #103 ) ) ;
#208 = ORIENTED_EDGE ( 'NONE', *, *, #21, .F. ) ;
#209 = LOCAL_TIME ( 11, 56, 56.00000000000000000, #90 ) ;
#210 = ORIENTED_EDGE ( 'NONE', *, *, #134, .F. ) ;
#211 = LINE ( 'NONE', #12, #124 ) ;
#212 = CYLINDRICAL_SURFACE ( 'NONE', #186, 15.00000000000000000 ) ;
#213 = LOCAL_TIME ( 11, 56, 56.00000000000000000, #222 ) ;
#214 = CYLINDRICAL_SURFACE ( 'NONE', #166, 8.750000000000000000 ) ;
#215 = DIRECTION ( 'NONE',  ( -0.000000000000000000, 1.000000000000000000, -0.000000000000000000 ) ) ;
#216 = DIRECTION ( 'NONE',  ( -0.000000000000000000, 1.000000000000000000, -0.000000000000000000 ) ) ;
#217 = DIRECTION ( 'NONE',  ( 0.000000000000000000, -0.000000000000000000, -1.000000000000000000 ) ) ;
#218 = ADVANCED_FACE ( 'NONE', ( #168, #63 ), #147, .F. ) ;
#219 = PERSON_AND_ORGANIZATION_ROLE ( 'design_owner' ) ;
#220 = CC_DESIGN_APPROVAL ( #126, ( #145 ) ) ;
#221 = PERSON_AND_ORGANIZATION ( #244, #91 ) ;
#222 = COORDINATED_UNIVERSAL_TIME_OFFSET ( 10, 0, .AHEAD. ) ;
#223 = VERTEX_POINT ( 'NONE', #131 ) ;
#224 = DATE_AND_TIME ( #79, #213 ) ;
#225 = CLOSED_SHELL ( 'NONE', ( #112, #34, #46, #10, #132, #218 ) ) ;
#226 = UNCERTAINTY_MEASURE_WITH_UNIT (LENGTH_MEASURE( 1.000000000000000082E-05 ), #130, 'distance_accuracy_value', 'NONE');
#227 = ORIENTED_EDGE ( 'NONE', *, *, #94, .T. ) ;
#228 = DIRECTION ( 'NONE',  ( -0.000000000000000000, 1.000000000000000000, -0.000000000000000000 ) ) ;
#229 = CARTESIAN_POINT ( 'NONE',  ( 0.000000000000000000, 0.000000000000000000, 15.00000000000000000 ) ) ;
#230 = CIRCLE ( 'NONE', #69, 15.00000000000000000 ) ;
#231 = AXIS2_PLACEMENT_3D ( 'NONE', #123, #62, #106 ) ;
#232 = CARTESIAN_POINT ( 'NONE',  ( 0.000000000000000000, -3.000000000000000000, 0.000000000000000000 ) ) ;
#233 = DIRECTION ( 'NONE',  ( -0.000000000000000000, 1.000000000000000000, -0.000000000000000000 ) ) ;
#234 = CARTESIAN_POINT ( 'NONE',  ( 0.000000000000000000, 0.000000000000000000, 0.000000000000000000 ) ) ;
#235 = APPLICATION_PROTOCOL_DEFINITION ( 'international standard', 'config_control_design', 1994, #39 ) ;
#236 = APPLICATION_PROTOCOL_DEFINITION ( 'international standard', 'config_control_design', 1994, #101 ) ;
#237 = COORDINATED_UNIVERSAL_TIME_OFFSET ( 10, 0, .AHEAD. ) ;
#238 = ORIENTED_EDGE ( 'NONE', *, *, #94, .F. ) ;
#239 = EDGE_LOOP ( 'NONE', ( #227, #240, #161, #61 ) ) ;
#240 = ORIENTED_EDGE ( 'NONE', *, *, #248, .T. ) ;
#241 = EDGE_LOOP ( 'NONE', ( #140, #56 ) ) ;
#242 = EDGE_CURVE ( 'NONE', #223, #80, #37, .T. ) ;
#243 = DIRECTION ( 'NONE',  ( -0.000000000000000000, 1.000000000000000000, -0.000000000000000000 ) ) ;
#244 = PERSON ( 'UNSPECIFIED', 'UNSPECIFIED', 'UNSPECIFIED', ('UNSPECIFIED'), ('UNSPECIFIED'), ('UNSPECIFIED') ) ;
#245 = DIRECTION ( 'NONE',  ( 0.000000000000000000, 0.000000000000000000, 1.000000000000000000 ) ) ;
#246 = DIRECTION ( 'NONE',  ( -0.000000000000000000, 1.000000000000000000, -0.000000000000000000 ) ) ;
#247 = AXIS2_PLACEMENT_3D ( 'NONE', #87, #233, #51 ) ;
#248 = EDGE_CURVE ( 'NONE', #60, #45, #129, .T. ) ;
#249 = CARTESIAN_POINT ( 'NONE',  ( 1.071565949253934124E-15, 0.000000000000000000, -8.750000000000000000 ) ) ;
ENDSEC;
END-ISO-10303-21;
