ISO-10303-21;
HEADER;
FILE_DESCRIPTION (( 'STEP AP203' ),
    '1' );
FILE_NAME ('M16 G10 FW_REV_.step',
    '2025-11-20T00:56:43',
    ( '' ),
    ( '' ),
    'SwSTEP 2.0',
    'SolidWorks 2025',
    '' );
FILE_SCHEMA (( 'CONFIG_CONTROL_DESIGN' ));
ENDSEC;

DATA;
#1 = APPROVAL_PERSON_ORGANIZATION ( #65, #62, #138 ) ;
#2 = APPROVAL_STATUS ( 'not_yet_approved' ) ;
#3 = EDGE_LOOP ( 'NONE', ( #15, #23 ) ) ;
#4 = EDGE_CURVE ( 'NONE', #145, #216, #119, .T. ) ;
#5 = APPROVAL_STATUS ( 'not_yet_approved' ) ;
#6 = CALENDAR_DATE ( 2025, 20, 11 ) ;
#7 = VERTEX_POINT ( 'NONE', #123 ) ;
#8 = VERTEX_POINT ( 'NONE', #51 ) ;
#9 = CIRCLE ( 'NONE', #28, 17.00000000000000000 ) ;
#10 = CYLINDRICAL_SURFACE ( 'NONE', #84, 17.00000000000000000 ) ;
#11 = ORIENTED_EDGE ( 'NONE', *, *, #41, .T. ) ;
#12 = LOCAL_TIME ( 11, 56, 43.00000000000000000, #115 ) ;
#13 = EDGE_LOOP ( 'NONE', ( #198, #86 ) ) ;
#14 = ORIENTED_EDGE ( 'NONE', *, *, #202, .F. ) ;
#15 = ORIENTED_EDGE ( 'NONE', *, *, #34, .F. ) ;
#16 = ADVANCED_FACE ( 'NONE', ( #143 ), #69, .F. ) ;
#17 = AXIS2_PLACEMENT_3D ( 'NONE', #50, #120, #105 ) ;
#18 = FACE_OUTER_BOUND ( 'NONE', #207, .T. ) ;
#19 = DIRECTION ( 'NONE',  ( -0.000000000000000000, 1.000000000000000000, -0.000000000000000000 ) ) ;
#20 = UNCERTAINTY_MEASURE_WITH_UNIT (LENGTH_MEASURE( 1.000000000000000082E-05 ), #187, 'distance_accuracy_value', 'NONE');
#21 = ORGANIZATION ( 'UNSPECIFIED', 'UNSPECIFIED', '' ) ;
#22 = SHAPE_DEFINITION_REPRESENTATION ( #169, #154 ) ;
#23 = ORIENTED_EDGE ( 'NONE', *, *, #4, .F. ) ;
#24 = EDGE_CURVE ( 'NONE', #156, #106, #240, .T. ) ;
#25 = AXIS2_PLACEMENT_3D ( 'NONE', #40, #248, #167 ) ;
#26 = EDGE_LOOP ( 'NONE', ( #190, #11, #164, #98 ) ) ;
#27 = PERSON_AND_ORGANIZATION_ROLE ( 'creator' ) ;
#28 = AXIS2_PLACEMENT_3D ( 'NONE', #168, #186, #170 ) ;
#29 = DIRECTION ( 'NONE',  ( 0.000000000000000000, 0.000000000000000000, 1.000000000000000000 ) ) ;
#30 = ORIENTED_EDGE ( 'NONE', *, *, #202, .T. ) ;
#31 = DIRECTION ( 'NONE',  ( -0.000000000000000000, 1.000000000000000000, -0.000000000000000000 ) ) ;
#32 = VECTOR ( 'NONE', #74, 1000.000000000000000 ) ;
#33 = DIRECTION ( 'NONE',  ( -0.000000000000000000, 1.000000000000000000, -0.000000000000000000 ) ) ;
#34 = EDGE_CURVE ( 'NONE', #216, #145, #137, .T. ) ;
#35 = ORIENTED_EDGE ( 'NONE', *, *, #219, .T. ) ;
#36 = CARTESIAN_POINT ( 'NONE',  ( 8.500000000000000000, 0.000000000000000000, 0.000000000000000000 ) ) ;
#37 = CARTESIAN_POINT ( 'NONE',  ( 1.040949779275250140E-15, 0.000000000000000000, -8.500000000000000000 ) ) ;
#38 = LINE ( 'NONE', #151, #131 ) ;
#39 = CC_DESIGN_DATE_AND_TIME_ASSIGNMENT ( #97, #155, ( #82 ) ) ;
#40 = CARTESIAN_POINT ( 'NONE',  ( 0.000000000000000000, 0.000000000000000000, 0.000000000000000000 ) ) ;
#41 = EDGE_CURVE ( 'NONE', #145, #8, #121, .T. ) ;
#42 = PERSON_AND_ORGANIZATION ( #244, #21 ) ;
#43 = PERSON_AND_ORGANIZATION ( #244, #21 ) ;
#44 = APPROVAL ( #2, 'UNSPECIFIED' ) ;
#45 = LOCAL_TIME ( 11, 56, 43.00000000000000000, #233 ) ;
#46 = EDGE_LOOP ( 'NONE', ( #211, #35, #134, #217 ) ) ;
#47 = COORDINATED_UNIVERSAL_TIME_OFFSET ( 10, 0, .AHEAD. ) ;
#48 = CARTESIAN_POINT ( 'NONE',  ( 0.000000000000000000, 0.000000000000000000, 8.500000000000000000 ) ) ;
#49 = DIRECTION ( 'NONE',  ( -0.000000000000000000, 1.000000000000000000, -0.000000000000000000 ) ) ;
#50 = CARTESIAN_POINT ( 'NONE',  ( 0.000000000000000000, -3.000000000000000000, 0.000000000000000000 ) ) ;
#51 = CARTESIAN_POINT ( 'NONE',  ( 2.081899558550500280E-15, 0.000000000000000000, -17.00000000000000000 ) ) ;
#52 = CARTESIAN_POINT ( 'NONE',  ( 0.000000000000000000, 0.000000000000000000, 0.000000000000000000 ) ) ;
#53 = CC_DESIGN_PERSON_AND_ORGANIZATION_ASSIGNMENT ( #152, #27, ( #82 ) ) ;
#54 = FACE_BOUND ( 'NONE', #13, .T. ) ;
#55 = ADVANCED_FACE ( 'NONE', ( #177 ), #103, .F. ) ;
#56 = DATE_AND_TIME ( #224, #87 ) ;
#57 = APPROVAL_PERSON_ORGANIZATION ( #130, #136, #185 ) ;
#58 = DIRECTION ( 'NONE',  ( 0.000000000000000000, 0.000000000000000000, 1.000000000000000000 ) ) ;
#59 = PERSON_AND_ORGANIZATION ( #244, #21 ) ;
#60 = APPROVAL_PERSON_ORGANIZATION ( #43, #44, #117 ) ;
#61 = EDGE_LOOP ( 'NONE', ( #30, #231 ) ) ;
#62 = APPROVAL ( #5, 'UNSPECIFIED' ) ;
#63 = APPLICATION_CONTEXT ( 'configuration controlled 3d designs of mechanical parts and assemblies' ) ;
#64 = DATE_AND_TIME ( #6, #191 ) ;
#65 = PERSON_AND_ORGANIZATION ( #244, #21 ) ;
#66 = PERSON_AND_ORGANIZATION_ROLE ( 'design_supplier' ) ;
#67 = DIRECTION ( 'NONE',  ( 0.000000000000000000, 0.000000000000000000, 1.000000000000000000 ) ) ;
#68 = PLANE ( 'NONE',  #220 ) ;
#69 = CYLINDRICAL_SURFACE ( 'NONE', #176, 8.500000000000000000 ) ;
#70 = CARTESIAN_POINT ( 'NONE',  ( 0.000000000000000000, 0.000000000000000000, 0.000000000000000000 ) ) ;
#71 = EDGE_CURVE ( 'NONE', #7, #8, #73, .T. ) ;
#72 = DIRECTION ( 'NONE',  ( -0.000000000000000000, 1.000000000000000000, -0.000000000000000000 ) ) ;
#73 = CIRCLE ( 'NONE', #188, 17.00000000000000000 ) ;
#74 = DIRECTION ( 'NONE',  ( -0.000000000000000000, 1.000000000000000000, -0.000000000000000000 ) ) ;
#75 = CARTESIAN_POINT ( 'NONE',  ( 0.000000000000000000, -3.000000000000000000, 17.00000000000000000 ) ) ;
#76 = CARTESIAN_POINT ( 'NONE',  ( 0.000000000000000000, 0.000000000000000000, 0.000000000000000000 ) ) ;
#77 = ADVANCED_FACE ( 'NONE', ( #122 ), #10, .T. ) ;
#78 = CC_DESIGN_APPROVAL ( #136, ( #82 ) ) ;
#79 = APPROVAL_DATE_TIME ( #192, #62 ) ;
#80 = ORIENTED_EDGE ( 'NONE', *, *, #4, .T. ) ;
#81 = VERTEX_POINT ( 'NONE', #199 ) ;
#82 = PRODUCT_DEFINITION ( 'UNKNOWN', '', #158, #96 ) ;
#83 = PERSON_AND_ORGANIZATION ( #244, #21 ) ;
#84 = AXIS2_PLACEMENT_3D ( 'NONE', #52, #196, #124 ) ;
#85 = PERSON_AND_ORGANIZATION ( #244, #21 ) ;
#86 = ORIENTED_EDGE ( 'NONE', *, *, #165, .F. ) ;
#87 = LOCAL_TIME ( 11, 56, 43.00000000000000000, #91 ) ;
#88 = DIRECTION ( 'NONE',  ( -0.000000000000000000, 1.000000000000000000, -0.000000000000000000 ) ) ;
#89 = ORIENTED_EDGE ( 'NONE', *, *, #219, .F. ) ;
#90 = EDGE_LOOP ( 'NONE', ( #89, #14, #241, #173 ) ) ;
#91 = COORDINATED_UNIVERSAL_TIME_OFFSET ( 10, 0, .AHEAD. ) ;
#92 = EDGE_CURVE ( 'NONE', #140, #156, #153, .T. ) ;
#93 = PLANE ( 'NONE',  #127 ) ;
#94 = CIRCLE ( 'NONE', #235, 8.500000000000000000 ) ;
#95 = APPLICATION_PROTOCOL_DEFINITION ( 'international standard', 'config_control_design', 1994, #212 ) ;
#96 = DESIGN_CONTEXT ( 'detailed design', #63, 'design' ) ;
#97 = DATE_AND_TIME ( #133, #45 ) ;
#98 = ORIENTED_EDGE ( 'NONE', *, *, #229, .F. ) ;
#99 = VECTOR ( 'NONE', #195, 1000.000000000000000 ) ;
#100 = APPROVAL_DATE_TIME ( #64, #44 ) ;
#101 = CARTESIAN_POINT ( 'NONE',  ( 2.081899558550500280E-15, 0.000000000000000000, -17.00000000000000000 ) ) ;
#102 = CC_DESIGN_DATE_AND_TIME_ASSIGNMENT ( #118, #157, ( #108 ) ) ;
#103 = CYLINDRICAL_SURFACE ( 'NONE', #200, 8.500000000000000000 ) ;
#104 = FACE_OUTER_BOUND ( 'NONE', #3, .T. ) ;
#105 = DIRECTION ( 'NONE',  ( 0.000000000000000000, 0.000000000000000000, 1.000000000000000000 ) ) ;
#106 = VERTEX_POINT ( 'NONE', #48 ) ;
#107 = CARTESIAN_POINT ( 'NONE',  ( 0.000000000000000000, 0.000000000000000000, 0.000000000000000000 ) ) ;
#108 = SECURITY_CLASSIFICATION ( '', '', #114 ) ;
#109 = DIRECTION ( 'NONE',  ( 0.000000000000000000, 0.000000000000000000, 1.000000000000000000 ) ) ;
#110 = DIRECTION ( 'NONE',  ( 0.000000000000000000, 0.000000000000000000, 1.000000000000000000 ) ) ;
#111 = DIRECTION ( 'NONE',  ( 0.000000000000000000, -0.000000000000000000, -1.000000000000000000 ) ) ;
#112 = AXIS2_PLACEMENT_3D ( 'NONE', #76, #226, #189 ) ;
#113 = FACE_OUTER_BOUND ( 'NONE', #26, .T. ) ;
#114 = SECURITY_CLASSIFICATION_LEVEL ( 'unclassified' ) ;
#115 = COORDINATED_UNIVERSAL_TIME_OFFSET ( 10, 0, .AHEAD. ) ;
#116 = LOCAL_TIME ( 11, 56, 43.00000000000000000, #234 ) ;
#117 = APPROVAL_ROLE ( '' ) ;
#118 = DATE_AND_TIME ( #208, #116 ) ;
#119 = CIRCLE ( 'NONE', #17, 17.00000000000000000 ) ;
#120 = DIRECTION ( 'NONE',  ( -0.000000000000000000, 1.000000000000000000, -0.000000000000000000 ) ) ;
#121 = LINE ( 'NONE', #101, #99 ) ;
#122 = FACE_OUTER_BOUND ( 'NONE', #183, .T. ) ;
#123 = CARTESIAN_POINT ( 'NONE',  ( 0.000000000000000000, 0.000000000000000000, 17.00000000000000000 ) ) ;
#124 = DIRECTION ( 'NONE',  ( 0.000000000000000000, 0.000000000000000000, 1.000000000000000000 ) ) ;
#125 =( NAMED_UNIT ( * ) SI_UNIT ( $, .STERADIAN. ) SOLID_ANGLE_UNIT ( ) );
#126 = APPROVAL_DATE_TIME ( #56, #136 ) ;
#127 = AXIS2_PLACEMENT_3D ( 'NONE', #36, #228, #111 ) ;
#128 = CARTESIAN_POINT ( 'NONE',  ( 1.040949779275250140E-15, -3.000000000000000000, -8.500000000000000000 ) ) ;
#129 = PERSON_AND_ORGANIZATION_ROLE ( 'design_owner' ) ;
#130 = PERSON_AND_ORGANIZATION ( #244, #21 ) ;
#131 = VECTOR ( 'NONE', #19, 1000.000000000000000 ) ;
#132 = AXIS2_PLACEMENT_3D ( 'NONE', #107, #148, #110 ) ;
#133 = CALENDAR_DATE ( 2025, 20, 11 ) ;
#134 = ORIENTED_EDGE ( 'NONE', *, *, #165, .T. ) ;
#135 = EDGE_CURVE ( 'NONE', #106, #81, #184, .T. ) ;
#136 = APPROVAL ( #204, 'UNSPECIFIED' ) ;
#137 = CIRCLE ( 'NONE', #225, 17.00000000000000000 ) ;
#138 = APPROVAL_ROLE ( '' ) ;
#139 = ADVANCED_FACE ( 'NONE', ( #104, #161 ), #68, .F. ) ;
#140 = VERTEX_POINT ( 'NONE', #128 ) ;
#141 = DIRECTION ( 'NONE',  ( 0.000000000000000000, 0.000000000000000000, 1.000000000000000000 ) ) ;
#142 = VECTOR ( 'NONE', #72, 1000.000000000000000 ) ;
#143 = FACE_OUTER_BOUND ( 'NONE', #46, .T. ) ;
#144 = DIRECTION ( 'NONE',  ( -0.000000000000000000, 1.000000000000000000, 0.000000000000000000 ) ) ;
#145 = VERTEX_POINT ( 'NONE', #249 ) ;
#146 = CARTESIAN_POINT ( 'NONE',  ( 0.000000000000000000, 0.000000000000000000, 0.000000000000000000 ) ) ;
#147 = CYLINDRICAL_SURFACE ( 'NONE', #132, 17.00000000000000000 ) ;
#148 = DIRECTION ( 'NONE',  ( -0.000000000000000000, 1.000000000000000000, -0.000000000000000000 ) ) ;
#149 = CC_DESIGN_APPROVAL ( #62, ( #108 ) ) ;
#150 = APPLICATION_PROTOCOL_DEFINITION ( 'international standard', 'config_control_design', 1994, #63 ) ;
#151 = CARTESIAN_POINT ( 'NONE',  ( 0.000000000000000000, 0.000000000000000000, 17.00000000000000000 ) ) ;
#152 = PERSON_AND_ORGANIZATION ( #244, #21 ) ;
#153 = CIRCLE ( 'NONE', #206, 8.500000000000000000 ) ;
#154 = ADVANCED_BREP_SHAPE_REPRESENTATION ( 'M16 G10 FW_REV_', ( #239, #25 ), #166 ) ;
#155 = DATE_TIME_ROLE ( 'creation_date' ) ;
#156 = VERTEX_POINT ( 'NONE', #205 ) ;
#157 = DATE_TIME_ROLE ( 'classification_date' ) ;
#158 = PRODUCT_DEFINITION_FORMATION_WITH_SPECIFIED_SOURCE ( 'ANY', '', #227, .NOT_KNOWN. ) ;
#159 = CARTESIAN_POINT ( 'NONE',  ( 0.000000000000000000, 0.000000000000000000, 0.000000000000000000 ) ) ;
#160 = DIRECTION ( 'NONE',  ( -0.000000000000000000, 1.000000000000000000, -0.000000000000000000 ) ) ;
#161 = FACE_BOUND ( 'NONE', #61, .T. ) ;
#162 = CC_DESIGN_PERSON_AND_ORGANIZATION_ASSIGNMENT ( #42, #66, ( #158 ) ) ;
#163 = DIRECTION ( 'NONE',  ( 0.000000000000000000, 0.000000000000000000, 1.000000000000000000 ) ) ;
#164 = ORIENTED_EDGE ( 'NONE', *, *, #71, .F. ) ;
#165 = EDGE_CURVE ( 'NONE', #81, #106, #242, .T. ) ;
#166 =( GEOMETRIC_REPRESENTATION_CONTEXT ( 3 ) GLOBAL_UNCERTAINTY_ASSIGNED_CONTEXT ( ( #20 ) ) GLOBAL_UNIT_ASSIGNED_CONTEXT ( ( #187, #246, #125 ) ) REPRESENTATION_CONTEXT ( 'NONE', 'WORKASPACE' ) );
#167 = DIRECTION ( 'NONE',  ( 1.000000000000000000, 0.000000000000000000, 0.000000000000000000 ) ) ;
#168 = CARTESIAN_POINT ( 'NONE',  ( 0.000000000000000000, 0.000000000000000000, 0.000000000000000000 ) ) ;
#169 = PRODUCT_DEFINITION_SHAPE ( 'NONE', 'NONE',  #82 ) ;
#170 = DIRECTION ( 'NONE',  ( 0.000000000000000000, 0.000000000000000000, 1.000000000000000000 ) ) ;
#171 = PERSON_AND_ORGANIZATION_ROLE ( 'classification_officer' ) ;
#172 = ORIENTED_EDGE ( 'NONE', *, *, #71, .T. ) ;
#173 = ORIENTED_EDGE ( 'NONE', *, *, #135, .T. ) ;
#174 = CC_DESIGN_PERSON_AND_ORGANIZATION_ASSIGNMENT ( #83, #175, ( #158 ) ) ;
#175 = PERSON_AND_ORGANIZATION_ROLE ( 'creator' ) ;
#176 = AXIS2_PLACEMENT_3D ( 'NONE', #159, #33, #221 ) ;
#177 = FACE_OUTER_BOUND ( 'NONE', #90, .T. ) ;
#178 = ADVANCED_FACE ( 'NONE', ( #113 ), #147, .T. ) ;
#179 = DIRECTION ( 'NONE',  ( 0.000000000000000000, 0.000000000000000000, 1.000000000000000000 ) ) ;
#180 = CC_DESIGN_SECURITY_CLASSIFICATION ( #108, ( #158 ) ) ;
#181 = ORIENTED_EDGE ( 'NONE', *, *, #223, .T. ) ;
#182 = CARTESIAN_POINT ( 'NONE',  ( 0.000000000000000000, 0.000000000000000000, 8.500000000000000000 ) ) ;
#183 = EDGE_LOOP ( 'NONE', ( #193, #80, #218, #213 ) ) ;
#184 = CIRCLE ( 'NONE', #197, 8.500000000000000000 ) ;
#185 = APPROVAL_ROLE ( '' ) ;
#186 = DIRECTION ( 'NONE',  ( -0.000000000000000000, 1.000000000000000000, -0.000000000000000000 ) ) ;
#187 =( LENGTH_UNIT ( ) NAMED_UNIT ( * ) SI_UNIT ( .MILLI., .METRE. ) );
#188 = AXIS2_PLACEMENT_3D ( 'NONE', #146, #160, #179 ) ;
#189 = DIRECTION ( 'NONE',  ( 0.000000000000000000, 0.000000000000000000, 1.000000000000000000 ) ) ;
#190 = ORIENTED_EDGE ( 'NONE', *, *, #34, .T. ) ;
#191 = LOCAL_TIME ( 11, 56, 43.00000000000000000, #47 ) ;
#192 = DATE_AND_TIME ( #209, #12 ) ;
#193 = ORIENTED_EDGE ( 'NONE', *, *, #41, .F. ) ;
#194 = CARTESIAN_POINT ( 'NONE',  ( 0.000000000000000000, 0.000000000000000000, 0.000000000000000000 ) ) ;
#195 = DIRECTION ( 'NONE',  ( -0.000000000000000000, 1.000000000000000000, -0.000000000000000000 ) ) ;
#196 = DIRECTION ( 'NONE',  ( -0.000000000000000000, 1.000000000000000000, -0.000000000000000000 ) ) ;
#197 = AXIS2_PLACEMENT_3D ( 'NONE', #194, #88, #29 ) ;
#198 = ORIENTED_EDGE ( 'NONE', *, *, #135, .F. ) ;
#199 = CARTESIAN_POINT ( 'NONE',  ( 1.040949779275250140E-15, 0.000000000000000000, -8.500000000000000000 ) ) ;
#200 = AXIS2_PLACEMENT_3D ( 'NONE', #70, #214, #67 ) ;
#201 = LINE ( 'NONE', #37, #32 ) ;
#202 = EDGE_CURVE ( 'NONE', #156, #140, #94, .T. ) ;
#203 = DIRECTION ( 'NONE',  ( -0.000000000000000000, 1.000000000000000000, -0.000000000000000000 ) ) ;
#204 = APPROVAL_STATUS ( 'not_yet_approved' ) ;
#205 = CARTESIAN_POINT ( 'NONE',  ( 0.000000000000000000, -3.000000000000000000, 8.500000000000000000 ) ) ;
#206 = AXIS2_PLACEMENT_3D ( 'NONE', #237, #31, #141 ) ;
#207 = EDGE_LOOP ( 'NONE', ( #172, #181 ) ) ;
#208 = CALENDAR_DATE ( 2025, 20, 11 ) ;
#209 = CALENDAR_DATE ( 2025, 20, 11 ) ;
#210 = CC_DESIGN_PERSON_AND_ORGANIZATION_ASSIGNMENT ( #59, #129, ( #227 ) ) ;
#211 = ORIENTED_EDGE ( 'NONE', *, *, #92, .F. ) ;
#212 = APPLICATION_CONTEXT ( 'configuration controlled 3d designs of mechanical parts and assemblies' ) ;
#213 = ORIENTED_EDGE ( 'NONE', *, *, #223, .F. ) ;
#214 = DIRECTION ( 'NONE',  ( -0.000000000000000000, 1.000000000000000000, -0.000000000000000000 ) ) ;
#215 = CC_DESIGN_APPROVAL ( #44, ( #158 ) ) ;
#216 = VERTEX_POINT ( 'NONE', #75 ) ;
#217 = ORIENTED_EDGE ( 'NONE', *, *, #24, .F. ) ;
#218 = ORIENTED_EDGE ( 'NONE', *, *, #229, .T. ) ;
#219 = EDGE_CURVE ( 'NONE', #140, #81, #201, .T. ) ;
#220 = AXIS2_PLACEMENT_3D ( 'NONE', #238, #144, #58 ) ;
#221 = DIRECTION ( 'NONE',  ( 0.000000000000000000, 0.000000000000000000, 1.000000000000000000 ) ) ;
#222 = CARTESIAN_POINT ( 'NONE',  ( 0.000000000000000000, -3.000000000000000000, 0.000000000000000000 ) ) ;
#223 = EDGE_CURVE ( 'NONE', #8, #7, #9, .T. ) ;
#224 = CALENDAR_DATE ( 2025, 20, 11 ) ;
#225 = AXIS2_PLACEMENT_3D ( 'NONE', #236, #49, #163 ) ;
#226 = DIRECTION ( 'NONE',  ( -0.000000000000000000, 1.000000000000000000, -0.000000000000000000 ) ) ;
#227 = PRODUCT ( 'M16 G10 FW_REV_', 'M16 G10 FW_REV_', '', ( #243 ) ) ;
#228 = DIRECTION ( 'NONE',  ( 0.000000000000000000, -1.000000000000000000, 0.000000000000000000 ) ) ;
#229 = EDGE_CURVE ( 'NONE', #216, #7, #38, .T. ) ;
#230 = CC_DESIGN_PERSON_AND_ORGANIZATION_ASSIGNMENT ( #85, #171, ( #108 ) ) ;
#231 = ORIENTED_EDGE ( 'NONE', *, *, #92, .T. ) ;
#232 = ADVANCED_FACE ( 'NONE', ( #54, #18 ), #93, .F. ) ;
#233 = COORDINATED_UNIVERSAL_TIME_OFFSET ( 10, 0, .AHEAD. ) ;
#234 = COORDINATED_UNIVERSAL_TIME_OFFSET ( 10, 0, .AHEAD. ) ;
#235 = AXIS2_PLACEMENT_3D ( 'NONE', #222, #203, #109 ) ;
#236 = CARTESIAN_POINT ( 'NONE',  ( 0.000000000000000000, -3.000000000000000000, 0.000000000000000000 ) ) ;
#237 = CARTESIAN_POINT ( 'NONE',  ( 0.000000000000000000, -3.000000000000000000, 0.000000000000000000 ) ) ;
#238 = CARTESIAN_POINT ( 'NONE',  ( 8.500000000000000000, -3.000000000000000000, 0.000000000000000000 ) ) ;
#239 = MANIFOLD_SOLID_BREP ( 'Revolve', #247 ) ;
#240 = LINE ( 'NONE', #182, #142 ) ;
#241 = ORIENTED_EDGE ( 'NONE', *, *, #24, .T. ) ;
#242 = CIRCLE ( 'NONE', #112, 8.500000000000000000 ) ;
#243 = MECHANICAL_CONTEXT ( 'NONE', #212, 'mechanical' ) ;
#244 = PERSON ( 'UNSPECIFIED', 'UNSPECIFIED', 'UNSPECIFIED', ('UNSPECIFIED'), ('UNSPECIFIED'), ('UNSPECIFIED') ) ;
#245 = PRODUCT_RELATED_PRODUCT_CATEGORY ( 'detail', '', ( #227 ) ) ;
#246 =( NAMED_UNIT ( * ) PLANE_ANGLE_UNIT ( ) SI_UNIT ( $, .RADIAN. ) );
#247 = CLOSED_SHELL ( 'NONE', ( #178, #16, #55, #139, #77, #232 ) ) ;
#248 = DIRECTION ( 'NONE',  ( 0.000000000000000000, 0.000000000000000000, 1.000000000000000000 ) ) ;
#249 = CARTESIAN_POINT ( 'NONE',  ( 2.081899558550500280E-15, -3.000000000000000000, -17.00000000000000000 ) ) ;
ENDSEC;
END-ISO-10303-21;
