ISO-10303-21;
HEADER;
FILE_DESCRIPTION (( 'STEP AP203' ),
    '1' );
FILE_NAME ('M16 GAL FLAT WASHER _REV_.step',
    '2026-01-19T05:55:54',
    ( '' ),
    ( '' ),
    'SwSTEP 2.0',
    'SolidWorks 2025',
    '' );
FILE_SCHEMA (( 'CONFIG_CONTROL_DESIGN' ));
ENDSEC;

DATA;
#1 = CC_DESIGN_PERSON_AND_ORGANIZATION_ASSIGNMENT ( #96, #173, ( #226 ) ) ;
#2 = AXIS2_PLACEMENT_3D ( 'NONE', #57, #132, #112 ) ;
#3 = ORIENTED_EDGE ( 'NONE', *, *, #222, .F. ) ;
#4 = DIRECTION ( 'NONE',  ( 8.326672684727806484E-17, 1.000000000000000000, 1.893266172530421607E-28 ) ) ;
#5 = MANIFOLD_SOLID_BREP ( 'Revolve', #234 ) ;
#6 = AXIS2_PLACEMENT_3D ( 'NONE', #168, #205, #110 ) ;
#7 = ORIENTED_EDGE ( 'NONE', *, *, #76, .T. ) ;
#8 = CARTESIAN_POINT ( 'NONE',  ( 0.000000000000000000, 0.000000000000000000, 0.000000000000000000 ) ) ;
#9 = DIRECTION ( 'NONE',  ( 8.326672684727806484E-17, 1.000000000000000000, 1.893266172530421607E-28 ) ) ;
#10 = AXIS2_PLACEMENT_3D ( 'NONE', #69, #11, #247 ) ;
#11 = DIRECTION ( 'NONE',  ( 8.326672684727806484E-17, 1.000000000000000000, 1.893266172530421607E-28 ) ) ;
#12 = DIRECTION ( 'NONE',  ( 1.165734175856713543E-15, 7.573064690121672975E-29, 1.000000000000000000 ) ) ;
#13 = DIRECTION ( 'NONE',  ( 1.165734175856713346E-15, 7.573064690121672975E-29, 1.000000000000000000 ) ) ;
#14 = CIRCLE ( 'NONE', #159, 17.00000000000009237 ) ;
#15 = DIRECTION ( 'NONE',  ( -1.165734175856713543E-15, -7.573064690121672975E-29, -1.000000000000000000 ) ) ;
#16 = CC_DESIGN_APPROVAL ( #85, ( #99 ) ) ;
#17 = DATE_AND_TIME ( #190, #88 ) ;
#18 = PERSON_AND_ORGANIZATION_ROLE ( 'creator' ) ;
#19 = APPROVAL_PERSON_ORGANIZATION ( #114, #45, #115 ) ;
#20 = EDGE_CURVE ( 'NONE', #197, #215, #170, .T. ) ;
#21 = APPROVAL ( #212, 'UNSPECIFIED' ) ;
#22 = ORIENTED_EDGE ( 'NONE', *, *, #20, .F. ) ;
#23 = ADVANCED_BREP_SHAPE_REPRESENTATION ( 'M16 GAL FLAT WASHER _REV_', ( #5, #134 ), #27 ) ;
#24 = CC_DESIGN_PERSON_AND_ORGANIZATION_ASSIGNMENT ( #75, #37, ( #59 ) ) ;
#25 = SECURITY_CLASSIFICATION_LEVEL ( 'unclassified' ) ;
#26 = DIRECTION ( 'NONE',  ( 8.326672684727806484E-17, 1.000000000000000000, 1.893266172530421607E-28 ) ) ;
#27 =( GEOMETRIC_REPRESENTATION_CONTEXT ( 3 ) GLOBAL_UNCERTAINTY_ASSIGNED_CONTEXT ( ( #64 ) ) GLOBAL_UNIT_ASSIGNED_CONTEXT ( ( #249, #152, #172 ) ) REPRESENTATION_CONTEXT ( 'NONE', 'WORKASPACE' ) );
#28 = VERTEX_POINT ( 'NONE', #157 ) ;
#29 = APPLICATION_CONTEXT ( 'configuration controlled 3d designs of mechanical parts and assemblies' ) ;
#30 = DIRECTION ( 'NONE',  ( 1.165734175856713346E-15, 7.573064690121672975E-29, 1.000000000000000000 ) ) ;
#31 = CARTESIAN_POINT ( 'NONE',  ( -1.773558143101371850E-14, -1.287594350282556717E-27, -17.00000000000009237 ) ) ;
#32 = DIRECTION ( 'NONE',  ( 8.326672684727806484E-17, 1.000000000000000000, -7.582771377041432848E-29 ) ) ;
#33 = CARTESIAN_POINT ( 'NONE',  ( 1.243449787580175325E-11, -3.000000000003222311, 1.332267629550187849E-12 ) ) ;
#34 = APPLICATION_CONTEXT ( 'configuration controlled 3d designs of mechanical parts and assemblies' ) ;
#35 = EDGE_CURVE ( 'NONE', #83, #81, #122, .T. ) ;
#36 = DIRECTION ( 'NONE',  ( 1.165734175856684158E-15, 0.000000000000000000, 1.000000000000000000 ) ) ;
#37 = PERSON_AND_ORGANIZATION_ROLE ( 'creator' ) ;
#38 = DATE_AND_TIME ( #137, #128 ) ;
#39 = EDGE_CURVE ( 'NONE', #28, #237, #14, .T. ) ;
#40 = MECHANICAL_CONTEXT ( 'NONE', #29, 'mechanical' ) ;
#41 = PRODUCT_DEFINITION_SHAPE ( 'NONE', 'NONE',  #59 ) ;
#42 = APPROVAL_DATE_TIME ( #78, #45 ) ;
#43 = VECTOR ( 'NONE', #58, 1000.000000000000000 ) ;
#44 = CC_DESIGN_APPROVAL ( #45, ( #226 ) ) ;
#45 = APPROVAL ( #208, 'UNSPECIFIED' ) ;
#46 = ORIENTED_EDGE ( 'NONE', *, *, #76, .F. ) ;
#47 = CARTESIAN_POINT ( 'NONE',  ( 1.243449787580175325E-11, -3.000000000003222311, 1.332267629550187849E-12 ) ) ;
#48 = EDGE_CURVE ( 'NONE', #144, #63, #72, .T. ) ;
#49 = EDGE_LOOP ( 'NONE', ( #84, #140 ) ) ;
#50 = SHAPE_DEFINITION_REPRESENTATION ( #41, #23 ) ;
#51 = ORIENTED_EDGE ( 'NONE', *, *, #228, .T. ) ;
#52 = CARTESIAN_POINT ( 'NONE',  ( 9.908740494782117476E-15, 6.437104986603457229E-28, 8.500000000000046185 ) ) ;
#53 = CARTESIAN_POINT ( 'NONE',  ( 9.908740494782117476E-15, 6.437104986603457229E-28, 8.500000000000046185 ) ) ;
#54 = FACE_BOUND ( 'NONE', #49, .T. ) ;
#55 = ADVANCED_FACE ( 'NONE', ( #165, #54 ), #183, .F. ) ;
#56 = AXIS2_PLACEMENT_3D ( 'NONE', #223, #74, #36 ) ;
#57 = CARTESIAN_POINT ( 'NONE',  ( 0.000000000000000000, 0.000000000000000000, 0.000000000000000000 ) ) ;
#58 = DIRECTION ( 'NONE',  ( 8.326672684727806484E-17, 1.000000000000000000, 1.893266172530421607E-28 ) ) ;
#59 = PRODUCT_DEFINITION ( 'UNKNOWN', '', #226, #189 ) ;
#60 = PERSON_AND_ORGANIZATION_ROLE ( 'classification_officer' ) ;
#61 = EDGE_LOOP ( 'NONE', ( #100, #3 ) ) ;
#62 = APPROVAL_ROLE ( '' ) ;
#63 = VERTEX_POINT ( 'NONE', #187 ) ;
#64 = UNCERTAINTY_MEASURE_WITH_UNIT (LENGTH_MEASURE( 1.000000000000000082E-05 ), #249, 'distance_accuracy_value', 'NONE');
#65 = EDGE_LOOP ( 'NONE', ( #22, #121, #139, #66 ) ) ;
#66 = ORIENTED_EDGE ( 'NONE', *, *, #228, .F. ) ;
#67 = LINE ( 'NONE', #151, #43 ) ;
#68 = AXIS2_PLACEMENT_3D ( 'NONE', #33, #9, #246 ) ;
#69 = CARTESIAN_POINT ( 'NONE',  ( 0.000000000000000000, 0.000000000000000000, 0.000000000000000000 ) ) ;
#70 = DIRECTION ( 'NONE',  ( -8.326672684727806484E-17, -1.000000000000000000, 7.582771377041432848E-29 ) ) ;
#71 = CARTESIAN_POINT ( 'NONE',  ( -1.786048152128454086E-14, 3.220039677137933659E-27, -17.00000000000000000 ) ) ;
#72 = CIRCLE ( 'NONE', #200, 17.00000000000009237 ) ;
#73 = LOCAL_TIME ( 16, 55, 54.00000000000000000, #235 ) ;
#74 = DIRECTION ( 'NONE',  ( 8.326672684727806484E-17, 1.000000000000000000, 1.893266172530421607E-28 ) ) ;
#75 = PERSON_AND_ORGANIZATION ( #245, #77 ) ;
#76 = EDGE_CURVE ( 'NONE', #28, #63, #67, .T. ) ;
#77 = ORGANIZATION ( 'UNSPECIFIED', 'UNSPECIFIED', '' ) ;
#78 = DATE_AND_TIME ( #153, #118 ) ;
#79 = PERSON_AND_ORGANIZATION ( #245, #77 ) ;
#80 = ORIENTED_EDGE ( 'NONE', *, *, #167, .F. ) ;
#81 = VERTEX_POINT ( 'NONE', #129 ) ;
#82 = EDGE_LOOP ( 'NONE', ( #199, #241 ) ) ;
#83 = VERTEX_POINT ( 'NONE', #52 ) ;
#84 = ORIENTED_EDGE ( 'NONE', *, *, #198, .T. ) ;
#85 = APPROVAL ( #126, 'UNSPECIFIED' ) ;
#86 = LINE ( 'NONE', #53, #150 ) ;
#87 = CIRCLE ( 'NONE', #68, 17.00000000000009237 ) ;
#88 = LOCAL_TIME ( 16, 55, 54.00000000000000000, #209 ) ;
#89 = FACE_BOUND ( 'NONE', #106, .T. ) ;
#90 = CARTESIAN_POINT ( 'NONE',  ( -8.867790715506859250E-15, -6.437971751412783583E-28, -8.500000000000046185 ) ) ;
#91 = DIRECTION ( 'NONE',  ( 8.326672684727806484E-17, 1.000000000000000000, 1.893266172530421607E-28 ) ) ;
#92 = APPROVAL_PERSON_ORGANIZATION ( #233, #21, #231 ) ;
#93 = CARTESIAN_POINT ( 'NONE',  ( 8.500000000021046276, -3.000000000006775025, 2.664535259100375697E-12 ) ) ;
#94 = APPROVAL_DATE_TIME ( #38, #21 ) ;
#95 = AXIS2_PLACEMENT_3D ( 'NONE', #218, #202, #213 ) ;
#96 = PERSON_AND_ORGANIZATION ( #245, #77 ) ;
#97 = DIRECTION ( 'NONE',  ( 0.000000000000000000, 0.000000000000000000, 1.000000000000000000 ) ) ;
#98 = PERSON_AND_ORGANIZATION ( #245, #77 ) ;
#99 = SECURITY_CLASSIFICATION ( '', '', #25 ) ;
#100 = ORIENTED_EDGE ( 'NONE', *, *, #39, .F. ) ;
#101 = ADVANCED_FACE ( 'NONE', ( #224 ), #145, .T. ) ;
#102 = CALENDAR_DATE ( 2026, 19, 1 ) ;
#103 = ORIENTED_EDGE ( 'NONE', *, *, #48, .F. ) ;
#104 = ORIENTED_EDGE ( 'NONE', *, *, #39, .T. ) ;
#105 = PERSON_AND_ORGANIZATION ( #245, #77 ) ;
#106 = EDGE_LOOP ( 'NONE', ( #123, #80 ) ) ;
#107 = CC_DESIGN_PERSON_AND_ORGANIZATION_ASSIGNMENT ( #79, #119, ( #116 ) ) ;
#108 = EDGE_LOOP ( 'NONE', ( #104, #195, #158, #46 ) ) ;
#109 = DIRECTION ( 'NONE',  ( 8.326672684727806484E-17, 1.000000000000000000, 1.893266172530421607E-28 ) ) ;
#110 = DIRECTION ( 'NONE',  ( 1.165734175856713346E-15, 7.573064690121672975E-29, 1.000000000000000000 ) ) ;
#111 = CARTESIAN_POINT ( 'NONE',  ( 0.000000000000000000, 0.000000000000000000, 0.000000000000000000 ) ) ;
#112 = DIRECTION ( 'NONE',  ( 1.165734175856713346E-15, 7.573064690121672975E-29, 1.000000000000000000 ) ) ;
#113 = FACE_OUTER_BOUND ( 'NONE', #162, .T. ) ;
#114 = PERSON_AND_ORGANIZATION ( #245, #77 ) ;
#115 = APPROVAL_ROLE ( '' ) ;
#116 = PRODUCT ( 'M16 GAL FLAT WASHER _REV_', 'M16 GAL FLAT WASHER _REV_', '', ( #40 ) ) ;
#117 = AXIS2_PLACEMENT_3D ( 'NONE', #93, #32, #12 ) ;
#118 = LOCAL_TIME ( 16, 55, 54.00000000000000000, #136 ) ;
#119 = PERSON_AND_ORGANIZATION_ROLE ( 'design_owner' ) ;
#120 = COORDINATED_UNIVERSAL_TIME_OFFSET ( 10, 0, .AHEAD. ) ;
#121 = ORIENTED_EDGE ( 'NONE', *, *, #154, .T. ) ;
#122 = CIRCLE ( 'NONE', #95, 8.500000000000046185 ) ;
#123 = ORIENTED_EDGE ( 'NONE', *, *, #35, .F. ) ;
#124 = CALENDAR_DATE ( 2026, 19, 1 ) ;
#125 = EDGE_LOOP ( 'NONE', ( #178, #177, #7, #103 ) ) ;
#126 = APPROVAL_STATUS ( 'not_yet_approved' ) ;
#127 = ORIENTED_EDGE ( 'NONE', *, *, #154, .F. ) ;
#128 = LOCAL_TIME ( 16, 55, 54.00000000000000000, #120 ) ;
#129 = CARTESIAN_POINT ( 'NONE',  ( -8.992690805777728942E-15, 1.610025038579816675E-27, -8.500000000000000000 ) ) ;
#130 = PLANE ( 'NONE',  #191 ) ;
#131 = CARTESIAN_POINT ( 'NONE',  ( 0.000000000000000000, 0.000000000000000000, 0.000000000000000000 ) ) ;
#132 = DIRECTION ( 'NONE',  ( 8.326672684727806484E-17, 1.000000000000000000, 1.893266172530421607E-28 ) ) ;
#133 = CARTESIAN_POINT ( 'NONE',  ( 8.500000000001506351, -5.329070518200751394E-12, 1.776356839400250465E-12 ) ) ;
#134 = AXIS2_PLACEMENT_3D ( 'NONE', #194, #97, #192 ) ;
#135 = DATE_TIME_ROLE ( 'creation_date' ) ;
#136 = COORDINATED_UNIVERSAL_TIME_OFFSET ( 10, 0, .AHEAD. ) ;
#137 = CALENDAR_DATE ( 2026, 19, 1 ) ;
#138 = VECTOR ( 'NONE', #148, 1000.000000000000000 ) ;
#139 = ORIENTED_EDGE ( 'NONE', *, *, #167, .T. ) ;
#140 = ORIENTED_EDGE ( 'NONE', *, *, #20, .T. ) ;
#141 = AXIS2_PLACEMENT_3D ( 'NONE', #111, #243, #30 ) ;
#142 = COORDINATED_UNIVERSAL_TIME_OFFSET ( 10, 0, .AHEAD. ) ;
#143 = CARTESIAN_POINT ( 'NONE',  ( 1.243449787580175325E-11, -3.000000000003222311, 1.332267629550187849E-12 ) ) ;
#144 = VERTEX_POINT ( 'NONE', #71 ) ;
#145 = CYLINDRICAL_SURFACE ( 'NONE', #216, 17.00000000000009237 ) ;
#146 = CIRCLE ( 'NONE', #210, 17.00000000000009237 ) ;
#147 = CARTESIAN_POINT ( 'NONE',  ( -1.786048152073111707E-14, -3.000000000003222311, -16.99999999999866773 ) ) ;
#148 = DIRECTION ( 'NONE',  ( 8.326672684727806484E-17, 1.000000000000000000, 1.893266172530421607E-28 ) ) ;
#149 = CYLINDRICAL_SURFACE ( 'NONE', #141, 17.00000000000009237 ) ;
#150 = VECTOR ( 'NONE', #227, 1000.000000000000000 ) ;
#151 = CARTESIAN_POINT ( 'NONE',  ( 1.981748098956423495E-14, 1.287420997320691446E-27, 17.00000000000009237 ) ) ;
#152 =( NAMED_UNIT ( * ) PLANE_ANGLE_UNIT ( ) SI_UNIT ( $, .RADIAN. ) );
#153 = CALENDAR_DATE ( 2026, 19, 1 ) ;
#154 = EDGE_CURVE ( 'NONE', #197, #81, #203, .T. ) ;
#155 = DATE_AND_TIME ( #124, #160 ) ;
#156 = CC_DESIGN_PERSON_AND_ORGANIZATION_ASSIGNMENT ( #230, #18, ( #226 ) ) ;
#157 = CARTESIAN_POINT ( 'NONE',  ( 1.245431535679131714E-11, -3.000000000003222311, 17.00000000000142464 ) ) ;
#158 = ORIENTED_EDGE ( 'NONE', *, *, #184, .F. ) ;
#159 = AXIS2_PLACEMENT_3D ( 'NONE', #47, #26, #182 ) ;
#160 = LOCAL_TIME ( 16, 55, 54.00000000000000000, #142 ) ;
#161 = ADVANCED_FACE ( 'NONE', ( #207 ), #225, .F. ) ;
#162 = EDGE_LOOP ( 'NONE', ( #127, #239, #51, #181 ) ) ;
#163 = DIRECTION ( 'NONE',  ( 8.326672684727806484E-17, 1.000000000000000000, 1.893266172530421607E-28 ) ) ;
#164 = ADVANCED_FACE ( 'NONE', ( #171 ), #149, .T. ) ;
#165 = FACE_OUTER_BOUND ( 'NONE', #61, .T. ) ;
#166 = FACE_OUTER_BOUND ( 'NONE', #82, .T. ) ;
#167 = EDGE_CURVE ( 'NONE', #81, #83, #220, .T. ) ;
#168 = CARTESIAN_POINT ( 'NONE',  ( 0.000000000000000000, 0.000000000000000000, 0.000000000000000000 ) ) ;
#169 = CARTESIAN_POINT ( 'NONE',  ( 0.000000000000000000, 0.000000000000000000, 0.000000000000000000 ) ) ;
#170 = CIRCLE ( 'NONE', #175, 8.500000000000046185 ) ;
#171 = FACE_OUTER_BOUND ( 'NONE', #125, .T. ) ;
#172 =( NAMED_UNIT ( * ) SI_UNIT ( $, .STERADIAN. ) SOLID_ANGLE_UNIT ( ) );
#173 = PERSON_AND_ORGANIZATION_ROLE ( 'design_supplier' ) ;
#174 = APPLICATION_PROTOCOL_DEFINITION ( 'international standard', 'config_control_design', 1994, #29 ) ;
#175 = AXIS2_PLACEMENT_3D ( 'NONE', #143, #4, #217 ) ;
#176 = DATE_TIME_ROLE ( 'classification_date' ) ;
#177 = ORIENTED_EDGE ( 'NONE', *, *, #222, .T. ) ;
#178 = ORIENTED_EDGE ( 'NONE', *, *, #244, .F. ) ;
#179 = APPROVAL_DATE_TIME ( #240, #85 ) ;
#180 = CIRCLE ( 'NONE', #56, 8.500000000000046185 ) ;
#181 = ORIENTED_EDGE ( 'NONE', *, *, #35, .T. ) ;
#182 = DIRECTION ( 'NONE',  ( 1.165734175856684158E-15, 0.000000000000000000, 1.000000000000000000 ) ) ;
#183 = PLANE ( 'NONE',  #117 ) ;
#184 = EDGE_CURVE ( 'NONE', #63, #144, #146, .T. ) ;
#185 = DIRECTION ( 'NONE',  ( 8.326672684727806484E-17, 1.000000000000000000, 1.893266172530421607E-28 ) ) ;
#186 = DIRECTION ( 'NONE',  ( 1.165734175856713346E-15, 7.573064690121672975E-29, 1.000000000000000000 ) ) ;
#187 = CARTESIAN_POINT ( 'NONE',  ( 1.981748098956423495E-14, 1.287420997320691446E-27, 17.00000000000009237 ) ) ;
#188 = DIRECTION ( 'NONE',  ( 1.165734175856713346E-15, 7.573064690121672975E-29, 1.000000000000000000 ) ) ;
#189 = DESIGN_CONTEXT ( 'detailed design', #34, 'design' ) ;
#190 = CALENDAR_DATE ( 2026, 19, 1 ) ;
#191 = AXIS2_PLACEMENT_3D ( 'NONE', #133, #70, #15 ) ;
#192 = DIRECTION ( 'NONE',  ( 1.000000000000000000, 0.000000000000000000, 0.000000000000000000 ) ) ;
#193 = ADVANCED_FACE ( 'NONE', ( #113 ), #221, .F. ) ;
#194 = CARTESIAN_POINT ( 'NONE',  ( 0.000000000000000000, 0.000000000000000000, 0.000000000000000000 ) ) ;
#195 = ORIENTED_EDGE ( 'NONE', *, *, #244, .T. ) ;
#196 = APPROVAL_PERSON_ORGANIZATION ( #105, #85, #62 ) ;
#197 = VERTEX_POINT ( 'NONE', #248 ) ;
#198 = EDGE_CURVE ( 'NONE', #215, #197, #180, .T. ) ;
#199 = ORIENTED_EDGE ( 'NONE', *, *, #184, .T. ) ;
#200 = AXIS2_PLACEMENT_3D ( 'NONE', #8, #163, #13 ) ;
#201 = CC_DESIGN_APPROVAL ( #21, ( #59 ) ) ;
#202 = DIRECTION ( 'NONE',  ( 8.326672684727806484E-17, 1.000000000000000000, 1.893266172530421607E-28 ) ) ;
#203 = LINE ( 'NONE', #90, #238 ) ;
#204 = LINE ( 'NONE', #31, #138 ) ;
#205 = DIRECTION ( 'NONE',  ( 8.326672684727806484E-17, 1.000000000000000000, 1.893266172530421607E-28 ) ) ;
#206 = CARTESIAN_POINT ( 'NONE',  ( 1.244440661629653439E-11, -3.000000000003222311, 8.500000000001378453 ) ) ;
#207 = FACE_OUTER_BOUND ( 'NONE', #65, .T. ) ;
#208 = APPROVAL_STATUS ( 'not_yet_approved' ) ;
#209 = COORDINATED_UNIVERSAL_TIME_OFFSET ( 10, 0, .AHEAD. ) ;
#210 = AXIS2_PLACEMENT_3D ( 'NONE', #169, #109, #186 ) ;
#211 = CC_DESIGN_SECURITY_CLASSIFICATION ( #99, ( #226 ) ) ;
#212 = APPROVAL_STATUS ( 'not_yet_approved' ) ;
#213 = DIRECTION ( 'NONE',  ( 1.165734175856713346E-15, 7.573064690121672975E-29, 1.000000000000000000 ) ) ;
#214 = CC_DESIGN_PERSON_AND_ORGANIZATION_ASSIGNMENT ( #98, #60, ( #99 ) ) ;
#215 = VERTEX_POINT ( 'NONE', #206 ) ;
#216 = AXIS2_PLACEMENT_3D ( 'NONE', #131, #185, #188 ) ;
#217 = DIRECTION ( 'NONE',  ( 1.165734175856684158E-15, 0.000000000000000000, 1.000000000000000000 ) ) ;
#218 = CARTESIAN_POINT ( 'NONE',  ( 0.000000000000000000, 0.000000000000000000, 0.000000000000000000 ) ) ;
#219 = CC_DESIGN_DATE_AND_TIME_ASSIGNMENT ( #155, #176, ( #99 ) ) ;
#220 = CIRCLE ( 'NONE', #2, 8.500000000000046185 ) ;
#221 = CYLINDRICAL_SURFACE ( 'NONE', #10, 8.500000000000046185 ) ;
#222 = EDGE_CURVE ( 'NONE', #237, #28, #87, .T. ) ;
#223 = CARTESIAN_POINT ( 'NONE',  ( 1.243449787580175325E-11, -3.000000000003222311, 1.332267629550187849E-12 ) ) ;
#224 = FACE_OUTER_BOUND ( 'NONE', #108, .T. ) ;
#225 = CYLINDRICAL_SURFACE ( 'NONE', #6, 8.500000000000046185 ) ;
#226 = PRODUCT_DEFINITION_FORMATION_WITH_SPECIFIED_SOURCE ( 'ANY', '', #116, .NOT_KNOWN. ) ;
#227 = DIRECTION ( 'NONE',  ( 8.326672684727806484E-17, 1.000000000000000000, 1.893266172530421607E-28 ) ) ;
#228 = EDGE_CURVE ( 'NONE', #215, #83, #86, .T. ) ;
#229 = APPLICATION_PROTOCOL_DEFINITION ( 'international standard', 'config_control_design', 1994, #34 ) ;
#230 = PERSON_AND_ORGANIZATION ( #245, #77 ) ;
#231 = APPROVAL_ROLE ( '' ) ;
#232 = PRODUCT_RELATED_PRODUCT_CATEGORY ( 'detail', '', ( #116 ) ) ;
#233 = PERSON_AND_ORGANIZATION ( #245, #77 ) ;
#234 = CLOSED_SHELL ( 'NONE', ( #101, #161, #193, #55, #164, #242 ) ) ;
#235 = COORDINATED_UNIVERSAL_TIME_OFFSET ( 10, 0, .AHEAD. ) ;
#236 = CC_DESIGN_DATE_AND_TIME_ASSIGNMENT ( #17, #135, ( #59 ) ) ;
#237 = VERTEX_POINT ( 'NONE', #147 ) ;
#238 = VECTOR ( 'NONE', #91, 1000.000000000000000 ) ;
#239 = ORIENTED_EDGE ( 'NONE', *, *, #198, .F. ) ;
#240 = DATE_AND_TIME ( #102, #73 ) ;
#241 = ORIENTED_EDGE ( 'NONE', *, *, #48, .T. ) ;
#242 = ADVANCED_FACE ( 'NONE', ( #89, #166 ), #130, .F. ) ;
#243 = DIRECTION ( 'NONE',  ( 8.326672684727806484E-17, 1.000000000000000000, 1.893266172530421607E-28 ) ) ;
#244 = EDGE_CURVE ( 'NONE', #237, #144, #204, .T. ) ;
#245 = PERSON ( 'UNSPECIFIED', 'UNSPECIFIED', 'UNSPECIFIED', ('UNSPECIFIED'), ('UNSPECIFIED'), ('UNSPECIFIED') ) ;
#246 = DIRECTION ( 'NONE',  ( 1.165734175856684158E-15, 0.000000000000000000, 1.000000000000000000 ) ) ;
#247 = DIRECTION ( 'NONE',  ( 1.165734175856713346E-15, 7.573064690121672975E-29, 1.000000000000000000 ) ) ;
#248 = CARTESIAN_POINT ( 'NONE',  ( -8.992690804737207208E-15, -3.000000000003222311, -8.499999999998667732 ) ) ;
#249 =( LENGTH_UNIT ( ) NAMED_UNIT ( * ) SI_UNIT ( .MILLI., .METRE. ) );
ENDSEC;
END-ISO-10303-21;
