ISO-10303-21;
HEADER;
FILE_DESCRIPTION (( 'STEP AP203' ),
    '1' );
FILE_NAME ('M20  FW HT 304_REV_.step',
    '2026-01-19T23:19:53',
    ( '' ),
    ( '' ),
    'SwSTEP 2.0',
    'SolidWorks 2025',
    '' );
FILE_SCHEMA (( 'CONFIG_CONTROL_DESIGN' ));
ENDSEC;

DATA;
#1 = CC_DESIGN_PERSON_AND_ORGANIZATION_ASSIGNMENT ( #66, #221, ( #37 ) ) ;
#2 = CIRCLE ( 'NONE', #115, 10.50000000000000000 ) ;
#3 = ADVANCED_FACE ( 'NONE', ( #7, #46 ), #237, .F. ) ;
#4 = DIRECTION ( 'NONE',  ( -0.000000000000000000, 1.000000000000000000, -0.000000000000000000 ) ) ;
#5 = APPROVAL ( #80, 'UNSPECIFIED' ) ;
#6 = DIRECTION ( 'NONE',  ( 0.000000000000000000, 0.000000000000000000, 1.000000000000000000 ) ) ;
#7 = FACE_BOUND ( 'NONE', #38, .T. ) ;
#8 = VERTEX_POINT ( 'NONE', #27 ) ;
#9 = APPROVAL_DATE_TIME ( #41, #206 ) ;
#10 = VERTEX_POINT ( 'NONE', #104 ) ;
#11 = COORDINATED_UNIVERSAL_TIME_OFFSET ( 10, 0, .AHEAD. ) ;
#12 = ORIENTED_EDGE ( 'NONE', *, *, #51, .F. ) ;
#13 = ADVANCED_FACE ( 'NONE', ( #234 ), #215, .T. ) ;
#14 = PERSON_AND_ORGANIZATION ( #53, #136 ) ;
#15 = CARTESIAN_POINT ( 'NONE',  ( 0.000000000000000000, -3.000000000000000000, 10.50000000000000000 ) ) ;
#16 = DIRECTION ( 'NONE',  ( 0.000000000000000000, 0.000000000000000000, 1.000000000000000000 ) ) ;
#17 = DIRECTION ( 'NONE',  ( -0.000000000000000000, 1.000000000000000000, -0.000000000000000000 ) ) ;
#18 = CARTESIAN_POINT ( 'NONE',  ( 0.000000000000000000, -3.000000000000000000, 18.50000000000000000 ) ) ;
#19 = LOCAL_TIME ( 10, 19, 53.00000000000000000, #238 ) ;
#20 = ORIENTED_EDGE ( 'NONE', *, *, #109, .T. ) ;
#21 = CC_DESIGN_PERSON_AND_ORGANIZATION_ASSIGNMENT ( #14, #81, ( #158 ) ) ;
#22 = ORIENTED_EDGE ( 'NONE', *, *, #171, .F. ) ;
#23 = APPROVAL_PERSON_ORGANIZATION ( #243, #5, #100 ) ;
#24 = ORIENTED_EDGE ( 'NONE', *, *, #36, .T. ) ;
#25 = ORIENTED_EDGE ( 'NONE', *, *, #99, .F. ) ;
#26 = APPROVAL_ROLE ( '' ) ;
#27 = CARTESIAN_POINT ( 'NONE',  ( 2.265596578422603396E-15, 0.000000000000000000, -18.50000000000000000 ) ) ;
#28 = CARTESIAN_POINT ( 'NONE',  ( 0.000000000000000000, -3.000000000000000000, 0.000000000000000000 ) ) ;
#29 = DIRECTION ( 'NONE',  ( -0.000000000000000000, 1.000000000000000000, -0.000000000000000000 ) ) ;
#30 = CC_DESIGN_APPROVAL ( #120, ( #135 ) ) ;
#31 = DIRECTION ( 'NONE',  ( -0.000000000000000000, 1.000000000000000000, -0.000000000000000000 ) ) ;
#32 = FACE_OUTER_BOUND ( 'NONE', #163, .T. ) ;
#33 = AXIS2_PLACEMENT_3D ( 'NONE', #69, #209, #16 ) ;
#34 = ADVANCED_FACE ( 'NONE', ( #160 ), #79, .F. ) ;
#35 = AXIS2_PLACEMENT_3D ( 'NONE', #50, #54, #166 ) ;
#36 = EDGE_CURVE ( 'NONE', #137, #164, #90, .T. ) ;
#37 = PRODUCT_DEFINITION ( 'UNKNOWN', '', #158, #233 ) ;
#38 = EDGE_LOOP ( 'NONE', ( #25, #161 ) ) ;
#39 = PERSON_AND_ORGANIZATION ( #53, #136 ) ;
#40 = ORIENTED_EDGE ( 'NONE', *, *, #36, .F. ) ;
#41 = DATE_AND_TIME ( #182, #144 ) ;
#42 = ORIENTED_EDGE ( 'NONE', *, *, #232, .F. ) ;
#43 =( NAMED_UNIT ( * ) PLANE_ANGLE_UNIT ( ) SI_UNIT ( $, .RADIAN. ) );
#44 = VERTEX_POINT ( 'NONE', #134 ) ;
#45 = COORDINATED_UNIVERSAL_TIME_OFFSET ( 10, 0, .AHEAD. ) ;
#46 = FACE_OUTER_BOUND ( 'NONE', #194, .T. ) ;
#47 = DATE_AND_TIME ( #246, #19 ) ;
#48 = CARTESIAN_POINT ( 'NONE',  ( 2.265596578422603396E-15, -3.000000000000000000, -18.50000000000000000 ) ) ;
#49 = AXIS2_PLACEMENT_3D ( 'NONE', #127, #183, #203 ) ;
#50 = CARTESIAN_POINT ( 'NONE',  ( 0.000000000000000000, 0.000000000000000000, 0.000000000000000000 ) ) ;
#51 = EDGE_CURVE ( 'NONE', #10, #44, #168, .T. ) ;
#52 = DIRECTION ( 'NONE',  ( -0.000000000000000000, 1.000000000000000000, -0.000000000000000000 ) ) ;
#53 = PERSON ( 'UNSPECIFIED', 'UNSPECIFIED', 'UNSPECIFIED', ('UNSPECIFIED'), ('UNSPECIFIED'), ('UNSPECIFIED') ) ;
#54 = DIRECTION ( 'NONE',  ( -0.000000000000000000, 1.000000000000000000, -0.000000000000000000 ) ) ;
#55 = AXIS2_PLACEMENT_3D ( 'NONE', #169, #52, #132 ) ;
#56 = EDGE_CURVE ( 'NONE', #164, #8, #110, .T. ) ;
#57 = PRODUCT ( 'M20  FW HT 304_REV_', 'M20  FW HT 304_REV_', '', ( #236 ) ) ;
#58 = MANIFOLD_SOLID_BREP ( 'Revolve', #82 ) ;
#59 = ORIENTED_EDGE ( 'NONE', *, *, #220, .T. ) ;
#60 = ORIENTED_EDGE ( 'NONE', *, *, #99, .T. ) ;
#61 = DIRECTION ( 'NONE',  ( -0.000000000000000000, 1.000000000000000000, -0.000000000000000000 ) ) ;
#62 =( NAMED_UNIT ( * ) SI_UNIT ( $, .STERADIAN. ) SOLID_ANGLE_UNIT ( ) );
#63 = ORIENTED_EDGE ( 'NONE', *, *, #76, .T. ) ;
#64 = VECTOR ( 'NONE', #189, 1000.000000000000000 ) ;
#65 = ORIENTED_EDGE ( 'NONE', *, *, #51, .T. ) ;
#66 = PERSON_AND_ORGANIZATION ( #53, #136 ) ;
#67 = LINE ( 'NONE', #149, #229 ) ;
#68 = ADVANCED_FACE ( 'NONE', ( #32, #153 ), #71, .F. ) ;
#69 = CARTESIAN_POINT ( 'NONE',  ( 10.50000000000000000, -3.000000000000000000, 0.000000000000000000 ) ) ;
#70 = AXIS2_PLACEMENT_3D ( 'NONE', #195, #197, #118 ) ;
#71 = PLANE ( 'NONE',  #33 ) ;
#72 = SHAPE_DEFINITION_REPRESENTATION ( #230, #157 ) ;
#73 = CARTESIAN_POINT ( 'NONE',  ( 0.000000000000000000, 0.000000000000000000, 18.50000000000000000 ) ) ;
#74 = APPROVAL_DATE_TIME ( #113, #120 ) ;
#75 = CIRCLE ( 'NONE', #70, 18.50000000000000000 ) ;
#76 = EDGE_CURVE ( 'NONE', #125, #139, #67, .T. ) ;
#77 = DIRECTION ( 'NONE',  ( 0.000000000000000000, 0.000000000000000000, 1.000000000000000000 ) ) ;
#78 = AXIS2_PLACEMENT_3D ( 'NONE', #173, #4, #77 ) ;
#79 = CYLINDRICAL_SURFACE ( 'NONE', #192, 10.50000000000000000 ) ;
#80 = APPROVAL_STATUS ( 'not_yet_approved' ) ;
#81 = PERSON_AND_ORGANIZATION_ROLE ( 'creator' ) ;
#82 = CLOSED_SHELL ( 'NONE', ( #13, #34, #214, #68, #114, #3 ) ) ;
#83 = PERSON_AND_ORGANIZATION ( #53, #136 ) ;
#84 = ORIENTED_EDGE ( 'NONE', *, *, #76, .F. ) ;
#85 = PERSON_AND_ORGANIZATION_ROLE ( 'classification_officer' ) ;
#86 = DIRECTION ( 'NONE',  ( -0.000000000000000000, 1.000000000000000000, -0.000000000000000000 ) ) ;
#87 = COORDINATED_UNIVERSAL_TIME_OFFSET ( 10, 0, .AHEAD. ) ;
#88 = DIRECTION ( 'NONE',  ( -0.000000000000000000, 1.000000000000000000, -0.000000000000000000 ) ) ;
#89 = CIRCLE ( 'NONE', #231, 18.50000000000000000 ) ;
#90 = LINE ( 'NONE', #227, #64 ) ;
#91 = CALENDAR_DATE ( 2026, 20, 1 ) ;
#92 = LINE ( 'NONE', #107, #165 ) ;
#93 = AXIS2_PLACEMENT_3D ( 'NONE', #240, #128, #6 ) ;
#94 = CC_DESIGN_APPROVAL ( #206, ( #158 ) ) ;
#95 = CC_DESIGN_PERSON_AND_ORGANIZATION_ASSIGNMENT ( #83, #148, ( #158 ) ) ;
#96 = ORIENTED_EDGE ( 'NONE', *, *, #181, .T. ) ;
#97 = EDGE_LOOP ( 'NONE', ( #22, #177, #24, #117 ) ) ;
#98 = CC_DESIGN_APPROVAL ( #5, ( #37 ) ) ;
#99 = EDGE_CURVE ( 'NONE', #139, #44, #116, .T. ) ;
#100 = APPROVAL_ROLE ( '' ) ;
#101 = ORIENTED_EDGE ( 'NONE', *, *, #181, .F. ) ;
#102 = ORIENTED_EDGE ( 'NONE', *, *, #220, .F. ) ;
#103 = DATE_AND_TIME ( #162, #123 ) ;
#104 = CARTESIAN_POINT ( 'NONE',  ( 1.285879139104720831E-15, -3.000000000000000000, -10.50000000000000000 ) ) ;
#105 = APPLICATION_PROTOCOL_DEFINITION ( 'international standard', 'config_control_design', 1994, #131 ) ;
#106 = DIRECTION ( 'NONE',  ( -0.000000000000000000, 1.000000000000000000, -0.000000000000000000 ) ) ;
#107 = CARTESIAN_POINT ( 'NONE',  ( 2.265596578422603396E-15, 0.000000000000000000, -18.50000000000000000 ) ) ;
#108 = CARTESIAN_POINT ( 'NONE',  ( 0.000000000000000000, -3.000000000000000000, 0.000000000000000000 ) ) ;
#109 = EDGE_CURVE ( 'NONE', #125, #10, #2, .T. ) ;
#110 = CIRCLE ( 'NONE', #198, 18.50000000000000000 ) ;
#111 = FACE_OUTER_BOUND ( 'NONE', #97, .T. ) ;
#112 = APPROVAL_ROLE ( '' ) ;
#113 = DATE_AND_TIME ( #91, #154 ) ;
#114 = ADVANCED_FACE ( 'NONE', ( #111 ), #191, .T. ) ;
#115 = AXIS2_PLACEMENT_3D ( 'NONE', #248, #185, #225 ) ;
#116 = CIRCLE ( 'NONE', #55, 10.50000000000000000 ) ;
#117 = ORIENTED_EDGE ( 'NONE', *, *, #211, .F. ) ;
#118 = DIRECTION ( 'NONE',  ( 0.000000000000000000, 0.000000000000000000, 1.000000000000000000 ) ) ;
#119 = ORIENTED_EDGE ( 'NONE', *, *, #56, .F. ) ;
#120 = APPROVAL ( #155, 'UNSPECIFIED' ) ;
#121 = SECURITY_CLASSIFICATION_LEVEL ( 'unclassified' ) ;
#122 = EDGE_LOOP ( 'NONE', ( #20, #96 ) ) ;
#123 = LOCAL_TIME ( 10, 19, 53.00000000000000000, #126 ) ;
#124 = APPROVAL_DATE_TIME ( #184, #5 ) ;
#125 = VERTEX_POINT ( 'NONE', #15 ) ;
#126 = COORDINATED_UNIVERSAL_TIME_OFFSET ( 10, 0, .AHEAD. ) ;
#127 = CARTESIAN_POINT ( 'NONE',  ( 10.50000000000000000, 0.000000000000000000, 0.000000000000000000 ) ) ;
#128 = DIRECTION ( 'NONE',  ( -0.000000000000000000, 1.000000000000000000, -0.000000000000000000 ) ) ;
#129 = DIRECTION ( 'NONE',  ( 0.000000000000000000, 0.000000000000000000, 1.000000000000000000 ) ) ;
#130 = AXIS2_PLACEMENT_3D ( 'NONE', #167, #204, #180 ) ;
#131 = APPLICATION_CONTEXT ( 'configuration controlled 3d designs of mechanical parts and assemblies' ) ;
#132 = DIRECTION ( 'NONE',  ( 0.000000000000000000, 0.000000000000000000, 1.000000000000000000 ) ) ;
#133 = CARTESIAN_POINT ( 'NONE',  ( 0.000000000000000000, 0.000000000000000000, 0.000000000000000000 ) ) ;
#134 = CARTESIAN_POINT ( 'NONE',  ( 1.285879139104720831E-15, 0.000000000000000000, -10.50000000000000000 ) ) ;
#135 = SECURITY_CLASSIFICATION ( '', '', #121 ) ;
#136 = ORGANIZATION ( 'UNSPECIFIED', 'UNSPECIFIED', '' ) ;
#137 = VERTEX_POINT ( 'NONE', #18 ) ;
#138 = CC_DESIGN_PERSON_AND_ORGANIZATION_ASSIGNMENT ( #224, #85, ( #135 ) ) ;
#139 = VERTEX_POINT ( 'NONE', #150 ) ;
#140 = PERSON_AND_ORGANIZATION_ROLE ( 'design_owner' ) ;
#141 = DIRECTION ( 'NONE',  ( 0.000000000000000000, 0.000000000000000000, 1.000000000000000000 ) ) ;
#142 = CALENDAR_DATE ( 2026, 20, 1 ) ;
#143 = EDGE_LOOP ( 'NONE', ( #101, #65, #201, #84 ) ) ;
#144 = LOCAL_TIME ( 10, 19, 53.00000000000000000, #11 ) ;
#145 = APPLICATION_PROTOCOL_DEFINITION ( 'international standard', 'config_control_design', 1994, #174 ) ;
#146 = ORIENTED_EDGE ( 'NONE', *, *, #56, .T. ) ;
#147 = CC_DESIGN_DATE_AND_TIME_ASSIGNMENT ( #103, #219, ( #37 ) ) ;
#148 = PERSON_AND_ORGANIZATION_ROLE ( 'design_supplier' ) ;
#149 = CARTESIAN_POINT ( 'NONE',  ( 0.000000000000000000, 0.000000000000000000, 10.50000000000000000 ) ) ;
#150 = CARTESIAN_POINT ( 'NONE',  ( 0.000000000000000000, 0.000000000000000000, 10.50000000000000000 ) ) ;
#151 = CIRCLE ( 'NONE', #35, 18.50000000000000000 ) ;
#152 = CARTESIAN_POINT ( 'NONE',  ( 0.000000000000000000, 0.000000000000000000, 0.000000000000000000 ) ) ;
#153 = FACE_BOUND ( 'NONE', #122, .T. ) ;
#154 = LOCAL_TIME ( 10, 19, 53.00000000000000000, #87 ) ;
#155 = APPROVAL_STATUS ( 'not_yet_approved' ) ;
#156 = PRODUCT_RELATED_PRODUCT_CATEGORY ( 'detail', '', ( #57 ) ) ;
#157 = ADVANCED_BREP_SHAPE_REPRESENTATION ( 'M20  FW HT 304_REV_', ( #58, #130 ), #235 ) ;
#158 = PRODUCT_DEFINITION_FORMATION_WITH_SPECIFIED_SOURCE ( 'ANY', '', #57, .NOT_KNOWN. ) ;
#159 = LOCAL_TIME ( 10, 19, 53.00000000000000000, #45 ) ;
#160 = FACE_OUTER_BOUND ( 'NONE', #143, .T. ) ;
#161 = ORIENTED_EDGE ( 'NONE', *, *, #245, .F. ) ;
#162 = CALENDAR_DATE ( 2026, 20, 1 ) ;
#163 = EDGE_LOOP ( 'NONE', ( #102, #42 ) ) ;
#164 = VERTEX_POINT ( 'NONE', #73 ) ;
#165 = VECTOR ( 'NONE', #228, 1000.000000000000000 ) ;
#166 = DIRECTION ( 'NONE',  ( 0.000000000000000000, 0.000000000000000000, 1.000000000000000000 ) ) ;
#167 = CARTESIAN_POINT ( 'NONE',  ( 0.000000000000000000, 0.000000000000000000, 0.000000000000000000 ) ) ;
#168 = LINE ( 'NONE', #247, #241 ) ;
#169 = CARTESIAN_POINT ( 'NONE',  ( 0.000000000000000000, 0.000000000000000000, 0.000000000000000000 ) ) ;
#170 = CARTESIAN_POINT ( 'NONE',  ( 0.000000000000000000, 0.000000000000000000, 0.000000000000000000 ) ) ;
#171 = EDGE_CURVE ( 'NONE', #179, #8, #92, .T. ) ;
#172 = AXIS2_PLACEMENT_3D ( 'NONE', #170, #31, #249 ) ;
#173 = CARTESIAN_POINT ( 'NONE',  ( 0.000000000000000000, 0.000000000000000000, 0.000000000000000000 ) ) ;
#174 = APPLICATION_CONTEXT ( 'configuration controlled 3d designs of mechanical parts and assemblies' ) ;
#175 = PERSON_AND_ORGANIZATION ( #53, #136 ) ;
#176 = AXIS2_PLACEMENT_3D ( 'NONE', #152, #86, #129 ) ;
#177 = ORIENTED_EDGE ( 'NONE', *, *, #232, .T. ) ;
#178 =( LENGTH_UNIT ( ) NAMED_UNIT ( * ) SI_UNIT ( .MILLI., .METRE. ) );
#179 = VERTEX_POINT ( 'NONE', #48 ) ;
#180 = DIRECTION ( 'NONE',  ( 1.000000000000000000, 0.000000000000000000, 0.000000000000000000 ) ) ;
#181 = EDGE_CURVE ( 'NONE', #10, #125, #193, .T. ) ;
#182 = CALENDAR_DATE ( 2026, 20, 1 ) ;
#183 = DIRECTION ( 'NONE',  ( 0.000000000000000000, -1.000000000000000000, 0.000000000000000000 ) ) ;
#184 = DATE_AND_TIME ( #142, #159 ) ;
#185 = DIRECTION ( 'NONE',  ( -0.000000000000000000, 1.000000000000000000, -0.000000000000000000 ) ) ;
#186 = CC_DESIGN_PERSON_AND_ORGANIZATION_ASSIGNMENT ( #175, #140, ( #57 ) ) ;
#187 = DIRECTION ( 'NONE',  ( -0.000000000000000000, 1.000000000000000000, -0.000000000000000000 ) ) ;
#188 = APPROVAL_PERSON_ORGANIZATION ( #39, #120, #112 ) ;
#189 = DIRECTION ( 'NONE',  ( -0.000000000000000000, 1.000000000000000000, -0.000000000000000000 ) ) ;
#190 = CIRCLE ( 'NONE', #93, 10.50000000000000000 ) ;
#191 = CYLINDRICAL_SURFACE ( 'NONE', #172, 18.50000000000000000 ) ;
#192 = AXIS2_PLACEMENT_3D ( 'NONE', #196, #61, #141 ) ;
#193 = CIRCLE ( 'NONE', #210, 10.50000000000000000 ) ;
#194 = EDGE_LOOP ( 'NONE', ( #146, #223 ) ) ;
#195 = CARTESIAN_POINT ( 'NONE',  ( 0.000000000000000000, -3.000000000000000000, 0.000000000000000000 ) ) ;
#196 = CARTESIAN_POINT ( 'NONE',  ( 0.000000000000000000, 0.000000000000000000, 0.000000000000000000 ) ) ;
#197 = DIRECTION ( 'NONE',  ( -0.000000000000000000, 1.000000000000000000, -0.000000000000000000 ) ) ;
#198 = AXIS2_PLACEMENT_3D ( 'NONE', #133, #17, #205 ) ;
#199 = EDGE_LOOP ( 'NONE', ( #12, #239, #63, #60 ) ) ;
#200 = APPROVAL_STATUS ( 'not_yet_approved' ) ;
#201 = ORIENTED_EDGE ( 'NONE', *, *, #245, .T. ) ;
#202 = PERSON_AND_ORGANIZATION ( #53, #136 ) ;
#203 = DIRECTION ( 'NONE',  ( 0.000000000000000000, -0.000000000000000000, -1.000000000000000000 ) ) ;
#204 = DIRECTION ( 'NONE',  ( 0.000000000000000000, 0.000000000000000000, 1.000000000000000000 ) ) ;
#205 = DIRECTION ( 'NONE',  ( 0.000000000000000000, 0.000000000000000000, 1.000000000000000000 ) ) ;
#206 = APPROVAL ( #200, 'UNSPECIFIED' ) ;
#207 = DIRECTION ( 'NONE',  ( 0.000000000000000000, 0.000000000000000000, 1.000000000000000000 ) ) ;
#208 = FACE_OUTER_BOUND ( 'NONE', #199, .T. ) ;
#209 = DIRECTION ( 'NONE',  ( -0.000000000000000000, 1.000000000000000000, 0.000000000000000000 ) ) ;
#210 = AXIS2_PLACEMENT_3D ( 'NONE', #108, #187, #226 ) ;
#211 = EDGE_CURVE ( 'NONE', #8, #164, #151, .T. ) ;
#212 = CC_DESIGN_SECURITY_CLASSIFICATION ( #135, ( #158 ) ) ;
#213 = CC_DESIGN_DATE_AND_TIME_ASSIGNMENT ( #47, #216, ( #135 ) ) ;
#214 = ADVANCED_FACE ( 'NONE', ( #208 ), #244, .F. ) ;
#215 = CYLINDRICAL_SURFACE ( 'NONE', #78, 18.50000000000000000 ) ;
#216 = DATE_TIME_ROLE ( 'classification_date' ) ;
#217 = UNCERTAINTY_MEASURE_WITH_UNIT (LENGTH_MEASURE( 1.000000000000000082E-05 ), #178, 'distance_accuracy_value', 'NONE');
#218 = EDGE_LOOP ( 'NONE', ( #59, #242, #119, #40 ) ) ;
#219 = DATE_TIME_ROLE ( 'creation_date' ) ;
#220 = EDGE_CURVE ( 'NONE', #137, #179, #89, .T. ) ;
#221 = PERSON_AND_ORGANIZATION_ROLE ( 'creator' ) ;
#222 = APPROVAL_PERSON_ORGANIZATION ( #202, #206, #26 ) ;
#223 = ORIENTED_EDGE ( 'NONE', *, *, #211, .T. ) ;
#224 = PERSON_AND_ORGANIZATION ( #53, #136 ) ;
#225 = DIRECTION ( 'NONE',  ( 0.000000000000000000, 0.000000000000000000, 1.000000000000000000 ) ) ;
#226 = DIRECTION ( 'NONE',  ( 0.000000000000000000, 0.000000000000000000, 1.000000000000000000 ) ) ;
#227 = CARTESIAN_POINT ( 'NONE',  ( 0.000000000000000000, 0.000000000000000000, 18.50000000000000000 ) ) ;
#228 = DIRECTION ( 'NONE',  ( -0.000000000000000000, 1.000000000000000000, -0.000000000000000000 ) ) ;
#229 = VECTOR ( 'NONE', #88, 1000.000000000000000 ) ;
#230 = PRODUCT_DEFINITION_SHAPE ( 'NONE', 'NONE',  #37 ) ;
#231 = AXIS2_PLACEMENT_3D ( 'NONE', #28, #106, #207 ) ;
#232 = EDGE_CURVE ( 'NONE', #179, #137, #75, .T. ) ;
#233 = DESIGN_CONTEXT ( 'detailed design', #131, 'design' ) ;
#234 = FACE_OUTER_BOUND ( 'NONE', #218, .T. ) ;
#235 =( GEOMETRIC_REPRESENTATION_CONTEXT ( 3 ) GLOBAL_UNCERTAINTY_ASSIGNED_CONTEXT ( ( #217 ) ) GLOBAL_UNIT_ASSIGNED_CONTEXT ( ( #178, #43, #62 ) ) REPRESENTATION_CONTEXT ( 'NONE', 'WORKASPACE' ) );
#236 = MECHANICAL_CONTEXT ( 'NONE', #174, 'mechanical' ) ;
#237 = PLANE ( 'NONE',  #49 ) ;
#238 = COORDINATED_UNIVERSAL_TIME_OFFSET ( 10, 0, .AHEAD. ) ;
#239 = ORIENTED_EDGE ( 'NONE', *, *, #109, .F. ) ;
#240 = CARTESIAN_POINT ( 'NONE',  ( 0.000000000000000000, 0.000000000000000000, 0.000000000000000000 ) ) ;
#241 = VECTOR ( 'NONE', #29, 1000.000000000000000 ) ;
#242 = ORIENTED_EDGE ( 'NONE', *, *, #171, .T. ) ;
#243 = PERSON_AND_ORGANIZATION ( #53, #136 ) ;
#244 = CYLINDRICAL_SURFACE ( 'NONE', #176, 10.50000000000000000 ) ;
#245 = EDGE_CURVE ( 'NONE', #44, #139, #190, .T. ) ;
#246 = CALENDAR_DATE ( 2026, 20, 1 ) ;
#247 = CARTESIAN_POINT ( 'NONE',  ( 1.285879139104720831E-15, 0.000000000000000000, -10.50000000000000000 ) ) ;
#248 = CARTESIAN_POINT ( 'NONE',  ( 0.000000000000000000, -3.000000000000000000, 0.000000000000000000 ) ) ;
#249 = DIRECTION ( 'NONE',  ( 0.000000000000000000, 0.000000000000000000, 1.000000000000000000 ) ) ;
ENDSEC;
END-ISO-10303-21;
