ISO-10303-21;
HEADER;
FILE_DESCRIPTION (( 'STEP AP203' ),
    '1' );
FILE_NAME ('M20 FW 304_REV_.step',
    '2026-01-19T23:29:20',
    ( '' ),
    ( '' ),
    'SwSTEP 2.0',
    'SolidWorks 2025',
    '' );
FILE_SCHEMA (( 'CONFIG_CONTROL_DESIGN' ));
ENDSEC;

DATA;
#1 = LINE ( 'NONE', #74, #96 ) ;
#2 = DATE_AND_TIME ( #19, #37 ) ;
#3 = DIRECTION ( 'NONE',  ( -0.000000000000000000, 1.000000000000000000, -0.000000000000000000 ) ) ;
#4 = EDGE_LOOP ( 'NONE', ( #216, #64, #220, #103 ) ) ;
#5 = CC_DESIGN_PERSON_AND_ORGANIZATION_ASSIGNMENT ( #115, #192, ( #155 ) ) ;
#6 = ORIENTED_EDGE ( 'NONE', *, *, #15, .F. ) ;
#7 = EDGE_LOOP ( 'NONE', ( #182, #18 ) ) ;
#8 = APPROVAL_DATE_TIME ( #198, #214 ) ;
#9 = PRODUCT_DEFINITION_SHAPE ( 'NONE', 'NONE',  #207 ) ;
#10 = CARTESIAN_POINT ( 'NONE',  ( 0.000000000000000000, 0.000000000000000000, 0.000000000000000000 ) ) ;
#11 = CARTESIAN_POINT ( 'NONE',  ( 2.265596578422603396E-15, 0.000000000000000000, -18.50000000000000000 ) ) ;
#12 = LOCAL_TIME ( 10, 29, 20.00000000000000000, #193 ) ;
#13 = CARTESIAN_POINT ( 'NONE',  ( 0.000000000000000000, 0.000000000000000000, 10.50000000000000000 ) ) ;
#14 = DIRECTION ( 'NONE',  ( 0.000000000000000000, 0.000000000000000000, 1.000000000000000000 ) ) ;
#15 = EDGE_CURVE ( 'NONE', #25, #127, #78, .T. ) ;
#16 = CC_DESIGN_SECURITY_CLASSIFICATION ( #155, ( #79 ) ) ;
#17 = DATE_AND_TIME ( #199, #12 ) ;
#18 = ORIENTED_EDGE ( 'NONE', *, *, #54, .T. ) ;
#19 = CALENDAR_DATE ( 2026, 20, 1 ) ;
#20 = CYLINDRICAL_SURFACE ( 'NONE', #47, 18.50000000000000000 ) ;
#21 = SECURITY_CLASSIFICATION_LEVEL ( 'unclassified' ) ;
#22 = CC_DESIGN_PERSON_AND_ORGANIZATION_ASSIGNMENT ( #158, #234, ( #79 ) ) ;
#23 = ORIENTED_EDGE ( 'NONE', *, *, #94, .F. ) ;
#24 = AXIS2_PLACEMENT_3D ( 'NONE', #110, #210, #108 ) ;
#25 = VERTEX_POINT ( 'NONE', #239 ) ;
#26 = DIRECTION ( 'NONE',  ( -0.000000000000000000, 1.000000000000000000, -0.000000000000000000 ) ) ;
#27 = DIRECTION ( 'NONE',  ( -0.000000000000000000, 1.000000000000000000, -0.000000000000000000 ) ) ;
#28 = PERSON_AND_ORGANIZATION ( #168, #245 ) ;
#29 = CYLINDRICAL_SURFACE ( 'NONE', #24, 10.50000000000000000 ) ;
#30 = DIRECTION ( 'NONE',  ( 0.000000000000000000, 0.000000000000000000, 1.000000000000000000 ) ) ;
#31 = FACE_OUTER_BOUND ( 'NONE', #240, .T. ) ;
#32 = EDGE_CURVE ( 'NONE', #143, #145, #154, .T. ) ;
#33 = CIRCLE ( 'NONE', #194, 18.50000000000000000 ) ;
#34 = APPROVAL_PERSON_ORGANIZATION ( #28, #214, #109 ) ;
#35 = DIRECTION ( 'NONE',  ( 1.000000000000000000, 0.000000000000000000, 0.000000000000000000 ) ) ;
#36 = AXIS2_PLACEMENT_3D ( 'NONE', #236, #81, #202 ) ;
#37 = LOCAL_TIME ( 10, 29, 20.00000000000000000, #122 ) ;
#38 = ADVANCED_FACE ( 'NONE', ( #82, #42 ), #40, .F. ) ;
#39 = DATE_AND_TIME ( #217, #93 ) ;
#40 = PLANE ( 'NONE',  #113 ) ;
#41 = PERSON_AND_ORGANIZATION_ROLE ( 'creator' ) ;
#42 = FACE_OUTER_BOUND ( 'NONE', #7, .T. ) ;
#43 = COORDINATED_UNIVERSAL_TIME_OFFSET ( 10, 0, .AHEAD. ) ;
#44 = PERSON_AND_ORGANIZATION ( #168, #245 ) ;
#45 = ORIENTED_EDGE ( 'NONE', *, *, #50, .T. ) ;
#46 = ORIENTED_EDGE ( 'NONE', *, *, #230, .T. ) ;
#47 = AXIS2_PLACEMENT_3D ( 'NONE', #101, #3, #141 ) ;
#48 = EDGE_LOOP ( 'NONE', ( #23, #137, #45, #221 ) ) ;
#49 = CARTESIAN_POINT ( 'NONE',  ( 1.285879139104720831E-15, -2.000000000000000000, -10.50000000000000000 ) ) ;
#50 = EDGE_CURVE ( 'NONE', #145, #127, #1, .T. ) ;
#51 = DIRECTION ( 'NONE',  ( -0.000000000000000000, 1.000000000000000000, -0.000000000000000000 ) ) ;
#52 = CC_DESIGN_APPROVAL ( #121, ( #79 ) ) ;
#53 = CARTESIAN_POINT ( 'NONE',  ( 0.000000000000000000, -2.000000000000000000, 10.50000000000000000 ) ) ;
#54 = EDGE_CURVE ( 'NONE', #183, #176, #83, .T. ) ;
#55 = CYLINDRICAL_SURFACE ( 'NONE', #59, 18.50000000000000000 ) ;
#56 =( NAMED_UNIT ( * ) PLANE_ANGLE_UNIT ( ) SI_UNIT ( $, .RADIAN. ) );
#57 = DESIGN_CONTEXT ( 'detailed design', #153, 'design' ) ;
#58 = PERSON_AND_ORGANIZATION ( #168, #245 ) ;
#59 = AXIS2_PLACEMENT_3D ( 'NONE', #241, #87, #189 ) ;
#60 = ADVANCED_FACE ( 'NONE', ( #197 ), #20, .T. ) ;
#61 = APPROVAL_ROLE ( '' ) ;
#62 = ORIENTED_EDGE ( 'NONE', *, *, #54, .F. ) ;
#63 = PERSON_AND_ORGANIZATION ( #168, #245 ) ;
#64 = ORIENTED_EDGE ( 'NONE', *, *, #94, .T. ) ;
#65 = ORIENTED_EDGE ( 'NONE', *, *, #238, .T. ) ;
#66 = CARTESIAN_POINT ( 'NONE',  ( 0.000000000000000000, -2.000000000000000000, 0.000000000000000000 ) ) ;
#67 = EDGE_CURVE ( 'NONE', #80, #183, #112, .T. ) ;
#68 = CARTESIAN_POINT ( 'NONE',  ( 0.000000000000000000, -2.000000000000000000, 18.50000000000000000 ) ) ;
#69 = DIRECTION ( 'NONE',  ( 0.000000000000000000, 0.000000000000000000, 1.000000000000000000 ) ) ;
#70 = DIRECTION ( 'NONE',  ( 0.000000000000000000, 0.000000000000000000, 1.000000000000000000 ) ) ;
#71 =( LENGTH_UNIT ( ) NAMED_UNIT ( * ) SI_UNIT ( .MILLI., .METRE. ) );
#72 = CALENDAR_DATE ( 2026, 20, 1 ) ;
#73 = UNCERTAINTY_MEASURE_WITH_UNIT (LENGTH_MEASURE( 1.000000000000000082E-05 ), #71, 'distance_accuracy_value', 'NONE');
#74 = CARTESIAN_POINT ( 'NONE',  ( 0.000000000000000000, 0.000000000000000000, 10.50000000000000000 ) ) ;
#75 = PRODUCT ( 'M20 FW 304_REV_', 'M20 FW 304_REV_', '', ( #178 ) ) ;
#76 = APPROVAL_DATE_TIME ( #2, #121 ) ;
#77 = ORIENTED_EDGE ( 'NONE', *, *, #67, .F. ) ;
#78 = CIRCLE ( 'NONE', #36, 10.50000000000000000 ) ;
#79 = PRODUCT_DEFINITION_FORMATION_WITH_SPECIFIED_SOURCE ( 'ANY', '', #75, .NOT_KNOWN. ) ;
#80 = VERTEX_POINT ( 'NONE', #226 ) ;
#81 = DIRECTION ( 'NONE',  ( -0.000000000000000000, 1.000000000000000000, -0.000000000000000000 ) ) ;
#82 = FACE_BOUND ( 'NONE', #203, .T. ) ;
#83 = CIRCLE ( 'NONE', #171, 18.50000000000000000 ) ;
#84 = CIRCLE ( 'NONE', #146, 18.50000000000000000 ) ;
#85 = DIRECTION ( 'NONE',  ( -0.000000000000000000, 1.000000000000000000, -0.000000000000000000 ) ) ;
#86 = CARTESIAN_POINT ( 'NONE',  ( 0.000000000000000000, 0.000000000000000000, 0.000000000000000000 ) ) ;
#87 = DIRECTION ( 'NONE',  ( -0.000000000000000000, 1.000000000000000000, -0.000000000000000000 ) ) ;
#88 = ADVANCED_BREP_SHAPE_REPRESENTATION ( 'M20 FW 304_REV_', ( #213, #218 ), #186 ) ;
#89 = AXIS2_PLACEMENT_3D ( 'NONE', #66, #26, #107 ) ;
#90 = CARTESIAN_POINT ( 'NONE',  ( 0.000000000000000000, -2.000000000000000000, 0.000000000000000000 ) ) ;
#91 = CARTESIAN_POINT ( 'NONE',  ( 0.000000000000000000, 0.000000000000000000, 0.000000000000000000 ) ) ;
#92 = COORDINATED_UNIVERSAL_TIME_OFFSET ( 10, 0, .AHEAD. ) ;
#93 = LOCAL_TIME ( 10, 29, 20.00000000000000000, #100 ) ;
#94 = EDGE_CURVE ( 'NONE', #143, #25, #188, .T. ) ;
#95 = PERSON_AND_ORGANIZATION_ROLE ( 'design_owner' ) ;
#96 = VECTOR ( 'NONE', #157, 1000.000000000000000 ) ;
#97 = APPROVAL_PERSON_ORGANIZATION ( #58, #161, #61 ) ;
#98 = DATE_TIME_ROLE ( 'creation_date' ) ;
#99 = ORIENTED_EDGE ( 'NONE', *, *, #132, .T. ) ;
#100 = COORDINATED_UNIVERSAL_TIME_OFFSET ( 10, 0, .AHEAD. ) ;
#101 = CARTESIAN_POINT ( 'NONE',  ( 0.000000000000000000, 0.000000000000000000, 0.000000000000000000 ) ) ;
#102 = CALENDAR_DATE ( 2026, 20, 1 ) ;
#103 = ORIENTED_EDGE ( 'NONE', *, *, #50, .F. ) ;
#104 = DATE_AND_TIME ( #72, #120 ) ;
#105 = ORIENTED_EDGE ( 'NONE', *, *, #67, .T. ) ;
#106 = ADVANCED_FACE ( 'NONE', ( #148 ), #150, .F. ) ;
#107 = DIRECTION ( 'NONE',  ( 0.000000000000000000, 0.000000000000000000, 1.000000000000000000 ) ) ;
#108 = DIRECTION ( 'NONE',  ( 0.000000000000000000, 0.000000000000000000, 1.000000000000000000 ) ) ;
#109 = APPROVAL_ROLE ( '' ) ;
#110 = CARTESIAN_POINT ( 'NONE',  ( 0.000000000000000000, 0.000000000000000000, 0.000000000000000000 ) ) ;
#111 = LINE ( 'NONE', #209, #159 ) ;
#112 = LINE ( 'NONE', #229, #174 ) ;
#113 = AXIS2_PLACEMENT_3D ( 'NONE', #177, #119, #196 ) ;
#114 = DIRECTION ( 'NONE',  ( 0.000000000000000000, 0.000000000000000000, 1.000000000000000000 ) ) ;
#115 = PERSON_AND_ORGANIZATION ( #168, #245 ) ;
#116 = CIRCLE ( 'NONE', #134, 10.50000000000000000 ) ;
#117 = PRODUCT_RELATED_PRODUCT_CATEGORY ( 'detail', '', ( #75 ) ) ;
#118 = APPROVAL_DATE_TIME ( #39, #161 ) ;
#119 = DIRECTION ( 'NONE',  ( 0.000000000000000000, -1.000000000000000000, 0.000000000000000000 ) ) ;
#120 = LOCAL_TIME ( 10, 29, 20.00000000000000000, #92 ) ;
#121 = APPROVAL ( #136, 'UNSPECIFIED' ) ;
#122 = COORDINATED_UNIVERSAL_TIME_OFFSET ( 10, 0, .AHEAD. ) ;
#123 = DIRECTION ( 'NONE',  ( 0.000000000000000000, 0.000000000000000000, 1.000000000000000000 ) ) ;
#124 = PERSON_AND_ORGANIZATION_ROLE ( 'design_supplier' ) ;
#125 = ADVANCED_FACE ( 'NONE', ( #227, #206 ), #225, .F. ) ;
#126 = ORIENTED_EDGE ( 'NONE', *, *, #132, .F. ) ;
#127 = VERTEX_POINT ( 'NONE', #13 ) ;
#128 = DIRECTION ( 'NONE',  ( -0.000000000000000000, 1.000000000000000000, -0.000000000000000000 ) ) ;
#129 = DIRECTION ( 'NONE',  ( -0.000000000000000000, 1.000000000000000000, -0.000000000000000000 ) ) ;
#130 = DIRECTION ( 'NONE',  ( 0.000000000000000000, 0.000000000000000000, 1.000000000000000000 ) ) ;
#131 = DIRECTION ( 'NONE',  ( -0.000000000000000000, 1.000000000000000000, -0.000000000000000000 ) ) ;
#132 = EDGE_CURVE ( 'NONE', #223, #176, #111, .T. ) ;
#133 = ADVANCED_FACE ( 'NONE', ( #173 ), #29, .F. ) ;
#134 = AXIS2_PLACEMENT_3D ( 'NONE', #90, #169, #172 ) ;
#135 = CC_DESIGN_APPROVAL ( #214, ( #155 ) ) ;
#136 = APPROVAL_STATUS ( 'not_yet_approved' ) ;
#137 = ORIENTED_EDGE ( 'NONE', *, *, #230, .F. ) ;
#138 = CARTESIAN_POINT ( 'NONE',  ( 0.000000000000000000, 0.000000000000000000, 0.000000000000000000 ) ) ;
#139 = EDGE_LOOP ( 'NONE', ( #46, #164 ) ) ;
#140 = PERSON_AND_ORGANIZATION ( #168, #245 ) ;
#141 = DIRECTION ( 'NONE',  ( 0.000000000000000000, 0.000000000000000000, 1.000000000000000000 ) ) ;
#142 = CC_DESIGN_PERSON_AND_ORGANIZATION_ASSIGNMENT ( #140, #124, ( #79 ) ) ;
#143 = VERTEX_POINT ( 'NONE', #49 ) ;
#144 = SHAPE_DEFINITION_REPRESENTATION ( #9, #88 ) ;
#145 = VERTEX_POINT ( 'NONE', #53 ) ;
#146 = AXIS2_PLACEMENT_3D ( 'NONE', #187, #242, #69 ) ;
#147 = LOCAL_TIME ( 10, 29, 20.00000000000000000, #43 ) ;
#148 = FACE_OUTER_BOUND ( 'NONE', #4, .T. ) ;
#149 =( NAMED_UNIT ( * ) SI_UNIT ( $, .STERADIAN. ) SOLID_ANGLE_UNIT ( ) );
#150 = CYLINDRICAL_SURFACE ( 'NONE', #231, 10.50000000000000000 ) ;
#151 = ADVANCED_FACE ( 'NONE', ( #31 ), #55, .T. ) ;
#152 = CARTESIAN_POINT ( 'NONE',  ( 1.285879139104720831E-15, 0.000000000000000000, -10.50000000000000000 ) ) ;
#153 = APPLICATION_CONTEXT ( 'configuration controlled 3d designs of mechanical parts and assemblies' ) ;
#154 = CIRCLE ( 'NONE', #89, 10.50000000000000000 ) ;
#155 = SECURITY_CLASSIFICATION ( '', '', #21 ) ;
#156 = APPLICATION_PROTOCOL_DEFINITION ( 'international standard', 'config_control_design', 1994, #211 ) ;
#157 = DIRECTION ( 'NONE',  ( -0.000000000000000000, 1.000000000000000000, -0.000000000000000000 ) ) ;
#158 = PERSON_AND_ORGANIZATION ( #168, #245 ) ;
#159 = VECTOR ( 'NONE', #27, 1000.000000000000000 ) ;
#160 = ORIENTED_EDGE ( 'NONE', *, *, #166, .F. ) ;
#161 = APPROVAL ( #232, 'UNSPECIFIED' ) ;
#162 = EDGE_LOOP ( 'NONE', ( #65, #105, #160, #126 ) ) ;
#163 = ORIENTED_EDGE ( 'NONE', *, *, #222, .F. ) ;
#164 = ORIENTED_EDGE ( 'NONE', *, *, #32, .T. ) ;
#165 = VECTOR ( 'NONE', #129, 1000.000000000000000 ) ;
#166 = EDGE_CURVE ( 'NONE', #176, #183, #195, .T. ) ;
#167 = APPROVAL_STATUS ( 'not_yet_approved' ) ;
#168 = PERSON ( 'UNSPECIFIED', 'UNSPECIFIED', 'UNSPECIFIED', ('UNSPECIFIED'), ('UNSPECIFIED'), ('UNSPECIFIED') ) ;
#169 = DIRECTION ( 'NONE',  ( -0.000000000000000000, 1.000000000000000000, -0.000000000000000000 ) ) ;
#170 = CC_DESIGN_DATE_AND_TIME_ASSIGNMENT ( #104, #237, ( #155 ) ) ;
#171 = AXIS2_PLACEMENT_3D ( 'NONE', #233, #219, #123 ) ;
#172 = DIRECTION ( 'NONE',  ( 0.000000000000000000, 0.000000000000000000, 1.000000000000000000 ) ) ;
#173 = FACE_OUTER_BOUND ( 'NONE', #48, .T. ) ;
#174 = VECTOR ( 'NONE', #51, 1000.000000000000000 ) ;
#175 = CC_DESIGN_APPROVAL ( #161, ( #207 ) ) ;
#176 = VERTEX_POINT ( 'NONE', #205 ) ;
#177 = CARTESIAN_POINT ( 'NONE',  ( 10.50000000000000000, 0.000000000000000000, 0.000000000000000000 ) ) ;
#178 = MECHANICAL_CONTEXT ( 'NONE', #211, 'mechanical' ) ;
#179 = ORIENTED_EDGE ( 'NONE', *, *, #222, .T. ) ;
#180 = CIRCLE ( 'NONE', #247, 10.50000000000000000 ) ;
#181 = ORIENTED_EDGE ( 'NONE', *, *, #238, .F. ) ;
#182 = ORIENTED_EDGE ( 'NONE', *, *, #166, .T. ) ;
#183 = VERTEX_POINT ( 'NONE', #11 ) ;
#184 = CC_DESIGN_PERSON_AND_ORGANIZATION_ASSIGNMENT ( #215, #95, ( #75 ) ) ;
#185 = DIRECTION ( 'NONE',  ( -0.000000000000000000, 1.000000000000000000, -0.000000000000000000 ) ) ;
#186 =( GEOMETRIC_REPRESENTATION_CONTEXT ( 3 ) GLOBAL_UNCERTAINTY_ASSIGNED_CONTEXT ( ( #73 ) ) GLOBAL_UNIT_ASSIGNED_CONTEXT ( ( #71, #56, #149 ) ) REPRESENTATION_CONTEXT ( 'NONE', 'WORKASPACE' ) );
#187 = CARTESIAN_POINT ( 'NONE',  ( 0.000000000000000000, -2.000000000000000000, 0.000000000000000000 ) ) ;
#188 = LINE ( 'NONE', #152, #165 ) ;
#189 = DIRECTION ( 'NONE',  ( 0.000000000000000000, 0.000000000000000000, 1.000000000000000000 ) ) ;
#190 = AXIS2_PLACEMENT_3D ( 'NONE', #191, #244, #30 ) ;
#191 = CARTESIAN_POINT ( 'NONE',  ( 10.50000000000000000, -2.000000000000000000, 0.000000000000000000 ) ) ;
#192 = PERSON_AND_ORGANIZATION_ROLE ( 'classification_officer' ) ;
#193 = COORDINATED_UNIVERSAL_TIME_OFFSET ( 10, 0, .AHEAD. ) ;
#194 = AXIS2_PLACEMENT_3D ( 'NONE', #243, #128, #70 ) ;
#195 = CIRCLE ( 'NONE', #228, 18.50000000000000000 ) ;
#196 = DIRECTION ( 'NONE',  ( 0.000000000000000000, -0.000000000000000000, -1.000000000000000000 ) ) ;
#197 = FACE_OUTER_BOUND ( 'NONE', #162, .T. ) ;
#198 = DATE_AND_TIME ( #102, #147 ) ;
#199 = CALENDAR_DATE ( 2026, 20, 1 ) ;
#200 = ORIENTED_EDGE ( 'NONE', *, *, #204, .F. ) ;
#201 = CLOSED_SHELL ( 'NONE', ( #60, #106, #133, #125, #151, #38 ) ) ;
#202 = DIRECTION ( 'NONE',  ( 0.000000000000000000, 0.000000000000000000, 1.000000000000000000 ) ) ;
#203 = EDGE_LOOP ( 'NONE', ( #200, #6 ) ) ;
#204 = EDGE_CURVE ( 'NONE', #127, #25, #180, .T. ) ;
#205 = CARTESIAN_POINT ( 'NONE',  ( 0.000000000000000000, 0.000000000000000000, 18.50000000000000000 ) ) ;
#206 = FACE_BOUND ( 'NONE', #139, .T. ) ;
#207 = PRODUCT_DEFINITION ( 'UNKNOWN', '', #79, #57 ) ;
#208 = DIRECTION ( 'NONE',  ( 0.000000000000000000, 0.000000000000000000, 1.000000000000000000 ) ) ;
#209 = CARTESIAN_POINT ( 'NONE',  ( 0.000000000000000000, 0.000000000000000000, 18.50000000000000000 ) ) ;
#210 = DIRECTION ( 'NONE',  ( -0.000000000000000000, 1.000000000000000000, -0.000000000000000000 ) ) ;
#211 = APPLICATION_CONTEXT ( 'configuration controlled 3d designs of mechanical parts and assemblies' ) ;
#212 = APPROVAL_ROLE ( '' ) ;
#213 = MANIFOLD_SOLID_BREP ( 'Revolve', #201 ) ;
#214 = APPROVAL ( #167, 'UNSPECIFIED' ) ;
#215 = PERSON_AND_ORGANIZATION ( #168, #245 ) ;
#216 = ORIENTED_EDGE ( 'NONE', *, *, #32, .F. ) ;
#217 = CALENDAR_DATE ( 2026, 20, 1 ) ;
#218 = AXIS2_PLACEMENT_3D ( 'NONE', #138, #14, #35 ) ;
#219 = DIRECTION ( 'NONE',  ( -0.000000000000000000, 1.000000000000000000, -0.000000000000000000 ) ) ;
#220 = ORIENTED_EDGE ( 'NONE', *, *, #15, .T. ) ;
#221 = ORIENTED_EDGE ( 'NONE', *, *, #204, .T. ) ;
#222 = EDGE_CURVE ( 'NONE', #80, #223, #84, .T. ) ;
#223 = VERTEX_POINT ( 'NONE', #68 ) ;
#224 = APPROVAL_PERSON_ORGANIZATION ( #44, #121, #212 ) ;
#225 = PLANE ( 'NONE',  #190 ) ;
#226 = CARTESIAN_POINT ( 'NONE',  ( 2.265596578422603396E-15, -2.000000000000000000, -18.50000000000000000 ) ) ;
#227 = FACE_OUTER_BOUND ( 'NONE', #235, .T. ) ;
#228 = AXIS2_PLACEMENT_3D ( 'NONE', #86, #85, #130 ) ;
#229 = CARTESIAN_POINT ( 'NONE',  ( 2.265596578422603396E-15, 0.000000000000000000, -18.50000000000000000 ) ) ;
#230 = EDGE_CURVE ( 'NONE', #145, #143, #116, .T. ) ;
#231 = AXIS2_PLACEMENT_3D ( 'NONE', #91, #131, #208 ) ;
#232 = APPROVAL_STATUS ( 'not_yet_approved' ) ;
#233 = CARTESIAN_POINT ( 'NONE',  ( 0.000000000000000000, 0.000000000000000000, 0.000000000000000000 ) ) ;
#234 = PERSON_AND_ORGANIZATION_ROLE ( 'creator' ) ;
#235 = EDGE_LOOP ( 'NONE', ( #181, #163 ) ) ;
#236 = CARTESIAN_POINT ( 'NONE',  ( 0.000000000000000000, 0.000000000000000000, 0.000000000000000000 ) ) ;
#237 = DATE_TIME_ROLE ( 'classification_date' ) ;
#238 = EDGE_CURVE ( 'NONE', #223, #80, #33, .T. ) ;
#239 = CARTESIAN_POINT ( 'NONE',  ( 1.285879139104720831E-15, 0.000000000000000000, -10.50000000000000000 ) ) ;
#240 = EDGE_LOOP ( 'NONE', ( #77, #179, #99, #62 ) ) ;
#241 = CARTESIAN_POINT ( 'NONE',  ( 0.000000000000000000, 0.000000000000000000, 0.000000000000000000 ) ) ;
#242 = DIRECTION ( 'NONE',  ( -0.000000000000000000, 1.000000000000000000, -0.000000000000000000 ) ) ;
#243 = CARTESIAN_POINT ( 'NONE',  ( 0.000000000000000000, -2.000000000000000000, 0.000000000000000000 ) ) ;
#244 = DIRECTION ( 'NONE',  ( -0.000000000000000000, 1.000000000000000000, 0.000000000000000000 ) ) ;
#245 = ORGANIZATION ( 'UNSPECIFIED', 'UNSPECIFIED', '' ) ;
#246 = CC_DESIGN_PERSON_AND_ORGANIZATION_ASSIGNMENT ( #63, #41, ( #207 ) ) ;
#247 = AXIS2_PLACEMENT_3D ( 'NONE', #10, #185, #114 ) ;
#248 = APPLICATION_PROTOCOL_DEFINITION ( 'international standard', 'config_control_design', 1994, #153 ) ;
#249 = CC_DESIGN_DATE_AND_TIME_ASSIGNMENT ( #17, #98, ( #207 ) ) ;
ENDSEC;
END-ISO-10303-21;
