ISO-10303-21;
HEADER;
FILE_DESCRIPTION (( 'STEP AP203' ),
    '1' );
FILE_NAME ('M20 FW GAL_REV_.step',
    '2026-01-19T05:55:58',
    ( '' ),
    ( '' ),
    'SwSTEP 2.0',
    'SolidWorks 2025',
    '' );
FILE_SCHEMA (( 'CONFIG_CONTROL_DESIGN' ));
ENDSEC;

DATA;
#1 = AXIS2_PLACEMENT_3D ( 'NONE', #56, #5, #235 ) ;
#2 = AXIS2_PLACEMENT_3D ( 'NONE', #221, #196, #140 ) ;
#3 = DIRECTION ( 'NONE',  ( -0.000000000000000000, 1.000000000000000000, -0.000000000000000000 ) ) ;
#4 = CARTESIAN_POINT ( 'NONE',  ( 0.000000000000000000, -3.000000000000000000, 11.00000000000000000 ) ) ;
#5 = DIRECTION ( 'NONE',  ( -0.000000000000000000, 1.000000000000000000, -0.000000000000000000 ) ) ;
#6 = ORIENTED_EDGE ( 'NONE', *, *, #38, .F. ) ;
#7 =( GEOMETRIC_REPRESENTATION_CONTEXT ( 3 ) GLOBAL_UNCERTAINTY_ASSIGNED_CONTEXT ( ( #249 ) ) GLOBAL_UNIT_ASSIGNED_CONTEXT ( ( #139, #227, #33 ) ) REPRESENTATION_CONTEXT ( 'NONE', 'WORKASPACE' ) );
#8 = CARTESIAN_POINT ( 'NONE',  ( 0.000000000000000000, 0.000000000000000000, 0.000000000000000000 ) ) ;
#9 = CARTESIAN_POINT ( 'NONE',  ( 0.000000000000000000, 0.000000000000000000, 0.000000000000000000 ) ) ;
#10 = APPROVAL ( #166, 'UNSPECIFIED' ) ;
#11 = CYLINDRICAL_SURFACE ( 'NONE', #1, 18.50000000000000000 ) ;
#12 = PERSON_AND_ORGANIZATION ( #57, #18 ) ;
#13 = CIRCLE ( 'NONE', #214, 18.50000000000000000 ) ;
#14 = AXIS2_PLACEMENT_3D ( 'NONE', #62, #159, #16 ) ;
#15 = APPROVAL ( #206, 'UNSPECIFIED' ) ;
#16 = DIRECTION ( 'NONE',  ( 1.000000000000000000, 0.000000000000000000, 0.000000000000000000 ) ) ;
#17 = COORDINATED_UNIVERSAL_TIME_OFFSET ( 10, 0, .AHEAD. ) ;
#18 = ORGANIZATION ( 'UNSPECIFIED', 'UNSPECIFIED', '' ) ;
#19 = DATE_AND_TIME ( #169, #185 ) ;
#20 = SECURITY_CLASSIFICATION_LEVEL ( 'unclassified' ) ;
#21 = DIRECTION ( 'NONE',  ( 0.000000000000000000, 0.000000000000000000, 1.000000000000000000 ) ) ;
#22 = CARTESIAN_POINT ( 'NONE',  ( 0.000000000000000000, 0.000000000000000000, 0.000000000000000000 ) ) ;
#23 = CIRCLE ( 'NONE', #164, 18.50000000000000000 ) ;
#24 = VERTEX_POINT ( 'NONE', #4 ) ;
#25 = LOCAL_TIME ( 16, 55, 58.00000000000000000, #17 ) ;
#26 = DIRECTION ( 'NONE',  ( -0.000000000000000000, 1.000000000000000000, -0.000000000000000000 ) ) ;
#27 = CARTESIAN_POINT ( 'NONE',  ( 1.347111479062088405E-15, 0.000000000000000000, -11.00000000000000000 ) ) ;
#28 = DIRECTION ( 'NONE',  ( -0.000000000000000000, 1.000000000000000000, -0.000000000000000000 ) ) ;
#29 = VERTEX_POINT ( 'NONE', #144 ) ;
#30 = CARTESIAN_POINT ( 'NONE',  ( 0.000000000000000000, 0.000000000000000000, 0.000000000000000000 ) ) ;
#31 = EDGE_CURVE ( 'NONE', #34, #74, #23, .T. ) ;
#32 = AXIS2_PLACEMENT_3D ( 'NONE', #188, #171, #170 ) ;
#33 =( NAMED_UNIT ( * ) SI_UNIT ( $, .STERADIAN. ) SOLID_ANGLE_UNIT ( ) );
#34 = VERTEX_POINT ( 'NONE', #223 ) ;
#35 = MECHANICAL_CONTEXT ( 'NONE', #194, 'mechanical' ) ;
#36 = APPROVAL_ROLE ( '' ) ;
#37 = DATE_AND_TIME ( #133, #82 ) ;
#38 = EDGE_CURVE ( 'NONE', #107, #189, #13, .T. ) ;
#39 = DIRECTION ( 'NONE',  ( -0.000000000000000000, 1.000000000000000000, -0.000000000000000000 ) ) ;
#40 = DATE_AND_TIME ( #111, #25 ) ;
#41 = CARTESIAN_POINT ( 'NONE',  ( 0.000000000000000000, -3.000000000000000000, 0.000000000000000000 ) ) ;
#42 = CLOSED_SHELL ( 'NONE', ( #61, #240, #94, #225, #187, #228 ) ) ;
#43 = LINE ( 'NONE', #131, #112 ) ;
#44 = CC_DESIGN_APPROVAL ( #15, ( #145 ) ) ;
#45 = DIRECTION ( 'NONE',  ( 0.000000000000000000, 0.000000000000000000, 1.000000000000000000 ) ) ;
#46 = ORIENTED_EDGE ( 'NONE', *, *, #153, .F. ) ;
#47 = ORIENTED_EDGE ( 'NONE', *, *, #236, .F. ) ;
#48 = MANIFOLD_SOLID_BREP ( 'Revolve', #42 ) ;
#49 = AXIS2_PLACEMENT_3D ( 'NONE', #9, #158, #239 ) ;
#50 = DIRECTION ( 'NONE',  ( -0.000000000000000000, 1.000000000000000000, 0.000000000000000000 ) ) ;
#51 = FACE_OUTER_BOUND ( 'NONE', #136, .T. ) ;
#52 = FACE_BOUND ( 'NONE', #90, .T. ) ;
#53 = ORIENTED_EDGE ( 'NONE', *, *, #132, .F. ) ;
#54 = ORIENTED_EDGE ( 'NONE', *, *, #122, .T. ) ;
#55 = CYLINDRICAL_SURFACE ( 'NONE', #148, 11.00000000000000000 ) ;
#56 = CARTESIAN_POINT ( 'NONE',  ( 0.000000000000000000, 0.000000000000000000, 0.000000000000000000 ) ) ;
#57 = PERSON ( 'UNSPECIFIED', 'UNSPECIFIED', 'UNSPECIFIED', ('UNSPECIFIED'), ('UNSPECIFIED'), ('UNSPECIFIED') ) ;
#58 = PRODUCT_DEFINITION_SHAPE ( 'NONE', 'NONE',  #145 ) ;
#59 = APPROVAL_PERSON_ORGANIZATION ( #123, #15, #36 ) ;
#60 = CARTESIAN_POINT ( 'NONE',  ( 0.000000000000000000, 0.000000000000000000, 0.000000000000000000 ) ) ;
#61 = ADVANCED_FACE ( 'NONE', ( #51 ), #11, .T. ) ;
#62 = CARTESIAN_POINT ( 'NONE',  ( 0.000000000000000000, 0.000000000000000000, 0.000000000000000000 ) ) ;
#63 = AXIS2_PLACEMENT_3D ( 'NONE', #230, #215, #45 ) ;
#64 = PERSON_AND_ORGANIZATION ( #57, #18 ) ;
#65 = APPROVAL_ROLE ( '' ) ;
#66 = CARTESIAN_POINT ( 'NONE',  ( 0.000000000000000000, 0.000000000000000000, 18.50000000000000000 ) ) ;
#67 = PERSON_AND_ORGANIZATION_ROLE ( 'design_supplier' ) ;
#68 = EDGE_CURVE ( 'NONE', #29, #193, #147, .T. ) ;
#69 = COORDINATED_UNIVERSAL_TIME_OFFSET ( 10, 0, .AHEAD. ) ;
#70 = PERSON_AND_ORGANIZATION ( #57, #18 ) ;
#71 = CIRCLE ( 'NONE', #127, 11.00000000000000000 ) ;
#72 = VECTOR ( 'NONE', #3, 1000.000000000000000 ) ;
#73 = ORIENTED_EDGE ( 'NONE', *, *, #178, .F. ) ;
#74 = VERTEX_POINT ( 'NONE', #204 ) ;
#75 = ADVANCED_BREP_SHAPE_REPRESENTATION ( 'M20 FW GAL_REV_', ( #48, #14 ), #7 ) ;
#76 = FACE_OUTER_BOUND ( 'NONE', #222, .T. ) ;
#77 = DIRECTION ( 'NONE',  ( -0.000000000000000000, 1.000000000000000000, -0.000000000000000000 ) ) ;
#78 = ORIENTED_EDGE ( 'NONE', *, *, #247, .T. ) ;
#79 = APPLICATION_PROTOCOL_DEFINITION ( 'international standard', 'config_control_design', 1994, #194 ) ;
#80 = APPLICATION_PROTOCOL_DEFINITION ( 'international standard', 'config_control_design', 1994, #150 ) ;
#81 = EDGE_CURVE ( 'NONE', #217, #193, #197, .T. ) ;
#82 = LOCAL_TIME ( 16, 55, 58.00000000000000000, #114 ) ;
#83 = DATE_AND_TIME ( #245, #91 ) ;
#84 = ORIENTED_EDGE ( 'NONE', *, *, #116, .T. ) ;
#85 = CARTESIAN_POINT ( 'NONE',  ( 0.000000000000000000, 0.000000000000000000, 0.000000000000000000 ) ) ;
#86 = APPROVAL_DATE_TIME ( #19, #10 ) ;
#87 = CC_DESIGN_PERSON_AND_ORGANIZATION_ASSIGNMENT ( #70, #146, ( #184 ) ) ;
#88 = CARTESIAN_POINT ( 'NONE',  ( 1.347111479062088405E-15, -3.000000000000000000, -11.00000000000000000 ) ) ;
#89 = EDGE_LOOP ( 'NONE', ( #237, #73 ) ) ;
#90 = EDGE_LOOP ( 'NONE', ( #181, #84 ) ) ;
#91 = LOCAL_TIME ( 16, 55, 58.00000000000000000, #110 ) ;
#92 = ORIENTED_EDGE ( 'NONE', *, *, #31, .T. ) ;
#93 = DIRECTION ( 'NONE',  ( -0.000000000000000000, 1.000000000000000000, -0.000000000000000000 ) ) ;
#94 = ADVANCED_FACE ( 'NONE', ( #160 ), #163, .F. ) ;
#95 = DIRECTION ( 'NONE',  ( -0.000000000000000000, 1.000000000000000000, -0.000000000000000000 ) ) ;
#96 = AXIS2_PLACEMENT_3D ( 'NONE', #41, #39, #21 ) ;
#97 = DIRECTION ( 'NONE',  ( 0.000000000000000000, 0.000000000000000000, 1.000000000000000000 ) ) ;
#98 = DATE_AND_TIME ( #209, #229 ) ;
#99 = COORDINATED_UNIVERSAL_TIME_OFFSET ( 10, 0, .AHEAD. ) ;
#100 = DIRECTION ( 'NONE',  ( -0.000000000000000000, 1.000000000000000000, -0.000000000000000000 ) ) ;
#101 = DATE_TIME_ROLE ( 'classification_date' ) ;
#102 = CC_DESIGN_PERSON_AND_ORGANIZATION_ASSIGNMENT ( #115, #67, ( #184 ) ) ;
#103 = DIRECTION ( 'NONE',  ( 0.000000000000000000, 0.000000000000000000, 1.000000000000000000 ) ) ;
#104 = ORIENTED_EDGE ( 'NONE', *, *, #178, .T. ) ;
#105 = ORIENTED_EDGE ( 'NONE', *, *, #68, .T. ) ;
#106 = EDGE_LOOP ( 'NONE', ( #233, #246, #216, #6 ) ) ;
#107 = VERTEX_POINT ( 'NONE', #134 ) ;
#108 = PRODUCT_RELATED_PRODUCT_CATEGORY ( 'detail', '', ( #244 ) ) ;
#109 = CC_DESIGN_DATE_AND_TIME_ASSIGNMENT ( #37, #101, ( #205 ) ) ;
#110 = COORDINATED_UNIVERSAL_TIME_OFFSET ( 10, 0, .AHEAD. ) ;
#111 = CALENDAR_DATE ( 2026, 19, 1 ) ;
#112 = VECTOR ( 'NONE', #130, 1000.000000000000000 ) ;
#113 = APPROVAL_DATE_TIME ( #40, #126 ) ;
#114 = COORDINATED_UNIVERSAL_TIME_OFFSET ( 10, 0, .AHEAD. ) ;
#115 = PERSON_AND_ORGANIZATION ( #57, #18 ) ;
#116 = EDGE_CURVE ( 'NONE', #217, #24, #71, .T. ) ;
#117 = DIRECTION ( 'NONE',  ( -0.000000000000000000, 1.000000000000000000, -0.000000000000000000 ) ) ;
#118 = EDGE_LOOP ( 'NONE', ( #138, #177, #78, #105 ) ) ;
#119 = PLANE ( 'NONE',  #2 ) ;
#120 = CARTESIAN_POINT ( 'NONE',  ( 0.000000000000000000, -3.000000000000000000, 0.000000000000000000 ) ) ;
#121 = EDGE_LOOP ( 'NONE', ( #176, #201, #104, #199 ) ) ;
#122 = EDGE_CURVE ( 'NONE', #74, #107, #43, .T. ) ;
#123 = PERSON_AND_ORGANIZATION ( #57, #18 ) ;
#124 = APPROVAL_DATE_TIME ( #83, #15 ) ;
#125 = CARTESIAN_POINT ( 'NONE',  ( 0.000000000000000000, -3.000000000000000000, 0.000000000000000000 ) ) ;
#126 = APPROVAL ( #183, 'UNSPECIFIED' ) ;
#127 = AXIS2_PLACEMENT_3D ( 'NONE', #125, #100, #167 ) ;
#128 = VECTOR ( 'NONE', #26, 1000.000000000000000 ) ;
#129 = PERSON_AND_ORGANIZATION ( #57, #18 ) ;
#130 = DIRECTION ( 'NONE',  ( -0.000000000000000000, 1.000000000000000000, -0.000000000000000000 ) ) ;
#131 = CARTESIAN_POINT ( 'NONE',  ( 2.265596578422603396E-15, 0.000000000000000000, -18.50000000000000000 ) ) ;
#132 = EDGE_CURVE ( 'NONE', #74, #34, #174, .T. ) ;
#133 = CALENDAR_DATE ( 2026, 19, 1 ) ;
#134 = CARTESIAN_POINT ( 'NONE',  ( 2.265596578422603396E-15, 0.000000000000000000, -18.50000000000000000 ) ) ;
#135 = CYLINDRICAL_SURFACE ( 'NONE', #63, 18.50000000000000000 ) ;
#136 = EDGE_LOOP ( 'NONE', ( #92, #54, #46, #47 ) ) ;
#137 = FACE_BOUND ( 'NONE', #89, .T. ) ;
#138 = ORIENTED_EDGE ( 'NONE', *, *, #81, .F. ) ;
#139 =( LENGTH_UNIT ( ) NAMED_UNIT ( * ) SI_UNIT ( .MILLI., .METRE. ) );
#140 = DIRECTION ( 'NONE',  ( 0.000000000000000000, -0.000000000000000000, -1.000000000000000000 ) ) ;
#141 = AXIS2_PLACEMENT_3D ( 'NONE', #22, #172, #248 ) ;
#142 = DIRECTION ( 'NONE',  ( 0.000000000000000000, 0.000000000000000000, 1.000000000000000000 ) ) ;
#143 = CC_DESIGN_DATE_AND_TIME_ASSIGNMENT ( #98, #186, ( #145 ) ) ;
#144 = CARTESIAN_POINT ( 'NONE',  ( 0.000000000000000000, 0.000000000000000000, 11.00000000000000000 ) ) ;
#145 = PRODUCT_DEFINITION ( 'UNKNOWN', '', #184, #173 ) ;
#146 = PERSON_AND_ORGANIZATION_ROLE ( 'creator' ) ;
#147 = CIRCLE ( 'NONE', #49, 11.00000000000000000 ) ;
#148 = AXIS2_PLACEMENT_3D ( 'NONE', #8, #28, #103 ) ;
#149 = EDGE_CURVE ( 'NONE', #24, #217, #203, .T. ) ;
#150 = APPLICATION_CONTEXT ( 'configuration controlled 3d designs of mechanical parts and assemblies' ) ;
#151 = FACE_OUTER_BOUND ( 'NONE', #106, .T. ) ;
#152 = ORIENTED_EDGE ( 'NONE', *, *, #153, .T. ) ;
#153 = EDGE_CURVE ( 'NONE', #189, #107, #165, .T. ) ;
#154 = CARTESIAN_POINT ( 'NONE',  ( 0.000000000000000000, 0.000000000000000000, 11.00000000000000000 ) ) ;
#155 = DIRECTION ( 'NONE',  ( -0.000000000000000000, 1.000000000000000000, -0.000000000000000000 ) ) ;
#156 = ORIENTED_EDGE ( 'NONE', *, *, #38, .T. ) ;
#157 = EDGE_LOOP ( 'NONE', ( #220, #53 ) ) ;
#158 = DIRECTION ( 'NONE',  ( -0.000000000000000000, 1.000000000000000000, -0.000000000000000000 ) ) ;
#159 = DIRECTION ( 'NONE',  ( 0.000000000000000000, 0.000000000000000000, 1.000000000000000000 ) ) ;
#160 = FACE_OUTER_BOUND ( 'NONE', #118, .T. ) ;
#161 = PERSON_AND_ORGANIZATION_ROLE ( 'design_owner' ) ;
#162 = APPROVAL_PERSON_ORGANIZATION ( #129, #126, #65 ) ;
#163 = CYLINDRICAL_SURFACE ( 'NONE', #202, 11.00000000000000000 ) ;
#164 = AXIS2_PLACEMENT_3D ( 'NONE', #120, #77, #142 ) ;
#165 = CIRCLE ( 'NONE', #224, 18.50000000000000000 ) ;
#166 = APPROVAL_STATUS ( 'not_yet_approved' ) ;
#167 = DIRECTION ( 'NONE',  ( 0.000000000000000000, 0.000000000000000000, 1.000000000000000000 ) ) ;
#168 = SHAPE_DEFINITION_REPRESENTATION ( #58, #75 ) ;
#169 = CALENDAR_DATE ( 2026, 19, 1 ) ;
#170 = DIRECTION ( 'NONE',  ( 0.000000000000000000, 0.000000000000000000, 1.000000000000000000 ) ) ;
#171 = DIRECTION ( 'NONE',  ( -0.000000000000000000, 1.000000000000000000, -0.000000000000000000 ) ) ;
#172 = DIRECTION ( 'NONE',  ( -0.000000000000000000, 1.000000000000000000, -0.000000000000000000 ) ) ;
#173 = DESIGN_CONTEXT ( 'detailed design', #150, 'design' ) ;
#174 = CIRCLE ( 'NONE', #96, 18.50000000000000000 ) ;
#175 = LINE ( 'NONE', #154, #72 ) ;
#176 = ORIENTED_EDGE ( 'NONE', *, *, #116, .F. ) ;
#177 = ORIENTED_EDGE ( 'NONE', *, *, #149, .F. ) ;
#178 = EDGE_CURVE ( 'NONE', #193, #29, #211, .T. ) ;
#179 = FACE_OUTER_BOUND ( 'NONE', #121, .T. ) ;
#180 = DIRECTION ( 'NONE',  ( 0.000000000000000000, 0.000000000000000000, 1.000000000000000000 ) ) ;
#181 = ORIENTED_EDGE ( 'NONE', *, *, #149, .T. ) ;
#182 = CC_DESIGN_PERSON_AND_ORGANIZATION_ASSIGNMENT ( #231, #232, ( #145 ) ) ;
#183 = APPROVAL_STATUS ( 'not_yet_approved' ) ;
#184 = PRODUCT_DEFINITION_FORMATION_WITH_SPECIFIED_SOURCE ( 'ANY', '', #244, .NOT_KNOWN. ) ;
#185 = LOCAL_TIME ( 16, 55, 58.00000000000000000, #69 ) ;
#186 = DATE_TIME_ROLE ( 'creation_date' ) ;
#187 = ADVANCED_FACE ( 'NONE', ( #151 ), #135, .T. ) ;
#188 = CARTESIAN_POINT ( 'NONE',  ( 0.000000000000000000, -3.000000000000000000, 0.000000000000000000 ) ) ;
#189 = VERTEX_POINT ( 'NONE', #66 ) ;
#190 = PERSON_AND_ORGANIZATION ( #57, #18 ) ;
#191 = DIRECTION ( 'NONE',  ( 0.000000000000000000, 0.000000000000000000, 1.000000000000000000 ) ) ;
#192 = CARTESIAN_POINT ( 'NONE',  ( 11.00000000000000000, -3.000000000000000000, 0.000000000000000000 ) ) ;
#193 = VERTEX_POINT ( 'NONE', #210 ) ;
#194 = APPLICATION_CONTEXT ( 'configuration controlled 3d designs of mechanical parts and assemblies' ) ;
#195 = APPROVAL_PERSON_ORGANIZATION ( #190, #10, #212 ) ;
#196 = DIRECTION ( 'NONE',  ( 0.000000000000000000, -1.000000000000000000, 0.000000000000000000 ) ) ;
#197 = LINE ( 'NONE', #27, #242 ) ;
#198 = CARTESIAN_POINT ( 'NONE',  ( 0.000000000000000000, 0.000000000000000000, 18.50000000000000000 ) ) ;
#199 = ORIENTED_EDGE ( 'NONE', *, *, #247, .F. ) ;
#200 = DIRECTION ( 'NONE',  ( 0.000000000000000000, 0.000000000000000000, 1.000000000000000000 ) ) ;
#201 = ORIENTED_EDGE ( 'NONE', *, *, #81, .T. ) ;
#202 = AXIS2_PLACEMENT_3D ( 'NONE', #60, #95, #97 ) ;
#203 = CIRCLE ( 'NONE', #32, 11.00000000000000000 ) ;
#204 = CARTESIAN_POINT ( 'NONE',  ( 2.265596578422603396E-15, -3.000000000000000000, -18.50000000000000000 ) ) ;
#205 = SECURITY_CLASSIFICATION ( '', '', #20 ) ;
#206 = APPROVAL_STATUS ( 'not_yet_approved' ) ;
#207 = CC_DESIGN_APPROVAL ( #10, ( #205 ) ) ;
#208 = CC_DESIGN_PERSON_AND_ORGANIZATION_ASSIGNMENT ( #12, #161, ( #244 ) ) ;
#209 = CALENDAR_DATE ( 2026, 19, 1 ) ;
#210 = CARTESIAN_POINT ( 'NONE',  ( 1.347111479062088405E-15, 0.000000000000000000, -11.00000000000000000 ) ) ;
#211 = CIRCLE ( 'NONE', #141, 11.00000000000000000 ) ;
#212 = APPROVAL_ROLE ( '' ) ;
#213 = PERSON_AND_ORGANIZATION_ROLE ( 'classification_officer' ) ;
#214 = AXIS2_PLACEMENT_3D ( 'NONE', #30, #155, #180 ) ;
#215 = DIRECTION ( 'NONE',  ( -0.000000000000000000, 1.000000000000000000, -0.000000000000000000 ) ) ;
#216 = ORIENTED_EDGE ( 'NONE', *, *, #236, .T. ) ;
#217 = VERTEX_POINT ( 'NONE', #88 ) ;
#218 = CC_DESIGN_PERSON_AND_ORGANIZATION_ASSIGNMENT ( #64, #213, ( #205 ) ) ;
#219 = LINE ( 'NONE', #198, #128 ) ;
#220 = ORIENTED_EDGE ( 'NONE', *, *, #31, .F. ) ;
#221 = CARTESIAN_POINT ( 'NONE',  ( 11.00000000000000000, 0.000000000000000000, 0.000000000000000000 ) ) ;
#222 = EDGE_LOOP ( 'NONE', ( #152, #156 ) ) ;
#223 = CARTESIAN_POINT ( 'NONE',  ( 0.000000000000000000, -3.000000000000000000, 18.50000000000000000 ) ) ;
#224 = AXIS2_PLACEMENT_3D ( 'NONE', #85, #117, #191 ) ;
#225 = ADVANCED_FACE ( 'NONE', ( #234, #52 ), #238, .F. ) ;
#226 = CC_DESIGN_APPROVAL ( #126, ( #184 ) ) ;
#227 =( NAMED_UNIT ( * ) PLANE_ANGLE_UNIT ( ) SI_UNIT ( $, .RADIAN. ) );
#228 = ADVANCED_FACE ( 'NONE', ( #137, #76 ), #119, .F. ) ;
#229 = LOCAL_TIME ( 16, 55, 58.00000000000000000, #99 ) ;
#230 = CARTESIAN_POINT ( 'NONE',  ( 0.000000000000000000, 0.000000000000000000, 0.000000000000000000 ) ) ;
#231 = PERSON_AND_ORGANIZATION ( #57, #18 ) ;
#232 = PERSON_AND_ORGANIZATION_ROLE ( 'creator' ) ;
#233 = ORIENTED_EDGE ( 'NONE', *, *, #122, .F. ) ;
#234 = FACE_OUTER_BOUND ( 'NONE', #157, .T. ) ;
#235 = DIRECTION ( 'NONE',  ( 0.000000000000000000, 0.000000000000000000, 1.000000000000000000 ) ) ;
#236 = EDGE_CURVE ( 'NONE', #34, #189, #219, .T. ) ;
#237 = ORIENTED_EDGE ( 'NONE', *, *, #68, .F. ) ;
#238 = PLANE ( 'NONE',  #243 ) ;
#239 = DIRECTION ( 'NONE',  ( 0.000000000000000000, 0.000000000000000000, 1.000000000000000000 ) ) ;
#240 = ADVANCED_FACE ( 'NONE', ( #179 ), #55, .F. ) ;
#241 = CC_DESIGN_SECURITY_CLASSIFICATION ( #205, ( #184 ) ) ;
#242 = VECTOR ( 'NONE', #93, 1000.000000000000000 ) ;
#243 = AXIS2_PLACEMENT_3D ( 'NONE', #192, #50, #200 ) ;
#244 = PRODUCT ( 'M20 FW GAL_REV_', 'M20 FW GAL_REV_', '', ( #35 ) ) ;
#245 = CALENDAR_DATE ( 2026, 19, 1 ) ;
#246 = ORIENTED_EDGE ( 'NONE', *, *, #132, .T. ) ;
#247 = EDGE_CURVE ( 'NONE', #24, #29, #175, .T. ) ;
#248 = DIRECTION ( 'NONE',  ( 0.000000000000000000, 0.000000000000000000, 1.000000000000000000 ) ) ;
#249 = UNCERTAINTY_MEASURE_WITH_UNIT (LENGTH_MEASURE( 1.000000000000000082E-05 ), #139, 'distance_accuracy_value', 'NONE');
ENDSEC;
END-ISO-10303-21;
