ISO-10303-21;
HEADER;
FILE_DESCRIPTION (( 'STEP AP203' ),
    '1' );
FILE_NAME ('M20 G10 FW_REV_.step',
    '2026-01-19T23:19:41',
    ( '' ),
    ( '' ),
    'SwSTEP 2.0',
    'SolidWorks 2025',
    '' );
FILE_SCHEMA (( 'CONFIG_CONTROL_DESIGN' ));
ENDSEC;

DATA;
#1 = DATE_AND_TIME ( #141, #108 ) ;
#2 = APPROVAL_ROLE ( '' ) ;
#3 = AXIS2_PLACEMENT_3D ( 'NONE', #208, #185, #205 ) ;
#4 = ORIENTED_EDGE ( 'NONE', *, *, #21, .T. ) ;
#5 = CIRCLE ( 'NONE', #12, 19.10000000000000142 ) ;
#6 = CARTESIAN_POINT ( 'NONE',  ( 2.339075386371445116E-15, 0.000000000000000000, -19.10000000000000142 ) ) ;
#7 = FACE_OUTER_BOUND ( 'NONE', #222, .T. ) ;
#8 = LINE ( 'NONE', #68, #60 ) ;
#9 = VERTEX_POINT ( 'NONE', #240 ) ;
#10 = DIRECTION ( 'NONE',  ( 0.000000000000000000, 0.000000000000000000, 1.000000000000000000 ) ) ;
#11 = MECHANICAL_CONTEXT ( 'NONE', #78, 'mechanical' ) ;
#12 = AXIS2_PLACEMENT_3D ( 'NONE', #48, #107, #161 ) ;
#13 = CARTESIAN_POINT ( 'NONE',  ( 1.359357947053562156E-15, 0.000000000000000000, -11.09999999999999964 ) ) ;
#14 = ADVANCED_FACE ( 'NONE', ( #7, #44 ), #131, .F. ) ;
#15 = APPROVAL_STATUS ( 'not_yet_approved' ) ;
#16 = CIRCLE ( 'NONE', #50, 11.09999999999999964 ) ;
#17 = MANIFOLD_SOLID_BREP ( 'Revolve', #176 ) ;
#18 = PERSON ( 'UNSPECIFIED', 'UNSPECIFIED', 'UNSPECIFIED', ('UNSPECIFIED'), ('UNSPECIFIED'), ('UNSPECIFIED') ) ;
#19 = ADVANCED_FACE ( 'NONE', ( #219 ), #111, .F. ) ;
#20 = APPROVAL_STATUS ( 'not_yet_approved' ) ;
#21 = EDGE_CURVE ( 'NONE', #244, #144, #16, .T. ) ;
#22 = LINE ( 'NONE', #145, #103 ) ;
#23 = AXIS2_PLACEMENT_3D ( 'NONE', #189, #71, #162 ) ;
#24 = PRODUCT_DEFINITION_FORMATION_WITH_SPECIFIED_SOURCE ( 'ANY', '', #46, .NOT_KNOWN. ) ;
#25 = CARTESIAN_POINT ( 'NONE',  ( 0.000000000000000000, -3.000000000000000000, 0.000000000000000000 ) ) ;
#26 = CARTESIAN_POINT ( 'NONE',  ( 0.000000000000000000, 0.000000000000000000, 11.09999999999999964 ) ) ;
#27 = DIRECTION ( 'NONE',  ( 0.000000000000000000, 0.000000000000000000, 1.000000000000000000 ) ) ;
#28 = ORIENTED_EDGE ( 'NONE', *, *, #142, .F. ) ;
#29 = DIRECTION ( 'NONE',  ( -0.000000000000000000, 1.000000000000000000, -0.000000000000000000 ) ) ;
#30 = ORIENTED_EDGE ( 'NONE', *, *, #128, .T. ) ;
#31 =( LENGTH_UNIT ( ) NAMED_UNIT ( * ) SI_UNIT ( .MILLI., .METRE. ) );
#32 = ORIENTED_EDGE ( 'NONE', *, *, #41, .T. ) ;
#33 = DIRECTION ( 'NONE',  ( 0.000000000000000000, 0.000000000000000000, 1.000000000000000000 ) ) ;
#34 = AXIS2_PLACEMENT_3D ( 'NONE', #152, #79, #134 ) ;
#35 = PERSON_AND_ORGANIZATION ( #18, #143 ) ;
#36 = CARTESIAN_POINT ( 'NONE',  ( 0.000000000000000000, 0.000000000000000000, 0.000000000000000000 ) ) ;
#37 = CC_DESIGN_PERSON_AND_ORGANIZATION_ASSIGNMENT ( #35, #121, ( #46 ) ) ;
#38 = AXIS2_PLACEMENT_3D ( 'NONE', #211, #55, #194 ) ;
#39 = SHAPE_DEFINITION_REPRESENTATION ( #40, #199 ) ;
#40 = PRODUCT_DEFINITION_SHAPE ( 'NONE', 'NONE',  #147 ) ;
#41 = EDGE_CURVE ( 'NONE', #243, #144, #8, .T. ) ;
#42 = CC_DESIGN_APPROVAL ( #65, ( #24 ) ) ;
#43 = ORIENTED_EDGE ( 'NONE', *, *, #70, .F. ) ;
#44 = FACE_BOUND ( 'NONE', #182, .T. ) ;
#45 = CARTESIAN_POINT ( 'NONE',  ( 0.000000000000000000, 0.000000000000000000, 0.000000000000000000 ) ) ;
#46 = PRODUCT ( 'M20 G10 FW_REV_', 'M20 G10 FW_REV_', '', ( #11 ) ) ;
#47 = DIRECTION ( 'NONE',  ( 0.000000000000000000, 0.000000000000000000, 1.000000000000000000 ) ) ;
#48 = CARTESIAN_POINT ( 'NONE',  ( 0.000000000000000000, -3.000000000000000000, 0.000000000000000000 ) ) ;
#49 = VERTEX_POINT ( 'NONE', #206 ) ;
#50 = AXIS2_PLACEMENT_3D ( 'NONE', #45, #188, #220 ) ;
#51 = ORIENTED_EDGE ( 'NONE', *, *, #82, .F. ) ;
#52 = APPROVAL_DATE_TIME ( #225, #67 ) ;
#53 = CYLINDRICAL_SURFACE ( 'NONE', #150, 19.10000000000000142 ) ;
#54 = ORIENTED_EDGE ( 'NONE', *, *, #153, .F. ) ;
#55 = DIRECTION ( 'NONE',  ( 0.000000000000000000, -1.000000000000000000, 0.000000000000000000 ) ) ;
#56 = APPLICATION_PROTOCOL_DEFINITION ( 'international standard', 'config_control_design', 1994, #78 ) ;
#57 = APPROVAL_PERSON_ORGANIZATION ( #80, #65, #217 ) ;
#58 = DIRECTION ( 'NONE',  ( 0.000000000000000000, 0.000000000000000000, 1.000000000000000000 ) ) ;
#59 = PERSON_AND_ORGANIZATION ( #18, #143 ) ;
#60 = VECTOR ( 'NONE', #92, 1000.000000000000000 ) ;
#61 = SECURITY_CLASSIFICATION_LEVEL ( 'unclassified' ) ;
#62 = CC_DESIGN_SECURITY_CLASSIFICATION ( #137, ( #24 ) ) ;
#63 = EDGE_CURVE ( 'NONE', #243, #223, #127, .T. ) ;
#64 = APPROVAL_DATE_TIME ( #156, #75 ) ;
#65 = APPROVAL ( #20, 'UNSPECIFIED' ) ;
#66 = APPLICATION_CONTEXT ( 'configuration controlled 3d designs of mechanical parts and assemblies' ) ;
#67 = APPROVAL ( #15, 'UNSPECIFIED' ) ;
#68 = CARTESIAN_POINT ( 'NONE',  ( 0.000000000000000000, 0.000000000000000000, 11.09999999999999964 ) ) ;
#69 = VERTEX_POINT ( 'NONE', #239 ) ;
#70 = EDGE_CURVE ( 'NONE', #69, #9, #109, .T. ) ;
#71 = DIRECTION ( 'NONE',  ( -0.000000000000000000, 1.000000000000000000, 0.000000000000000000 ) ) ;
#72 = EDGE_LOOP ( 'NONE', ( #51, #87, #32, #207 ) ) ;
#73 = CARTESIAN_POINT ( 'NONE',  ( 0.000000000000000000, 0.000000000000000000, 0.000000000000000000 ) ) ;
#74 = CC_DESIGN_APPROVAL ( #67, ( #147 ) ) ;
#75 = APPROVAL ( #198, 'UNSPECIFIED' ) ;
#76 = EDGE_LOOP ( 'NONE', ( #43, #30, #112, #54 ) ) ;
#77 = DIRECTION ( 'NONE',  ( 1.000000000000000000, 0.000000000000000000, 0.000000000000000000 ) ) ;
#78 = APPLICATION_CONTEXT ( 'configuration controlled 3d designs of mechanical parts and assemblies' ) ;
#79 = DIRECTION ( 'NONE',  ( -0.000000000000000000, 1.000000000000000000, -0.000000000000000000 ) ) ;
#80 = PERSON_AND_ORGANIZATION ( #18, #143 ) ;
#81 = CC_DESIGN_PERSON_AND_ORGANIZATION_ASSIGNMENT ( #178, #180, ( #137 ) ) ;
#82 = EDGE_CURVE ( 'NONE', #223, #244, #22, .T. ) ;
#83 = COORDINATED_UNIVERSAL_TIME_OFFSET ( 10, 0, .AHEAD. ) ;
#84 = EDGE_LOOP ( 'NONE', ( #191, #163, #4, #236 ) ) ;
#85 = PERSON_AND_ORGANIZATION ( #18, #143 ) ;
#86 = AXIS2_PLACEMENT_3D ( 'NONE', #155, #149, #77 ) ;
#87 = ORIENTED_EDGE ( 'NONE', *, *, #63, .F. ) ;
#88 = EDGE_LOOP ( 'NONE', ( #106, #90 ) ) ;
#89 = DIRECTION ( 'NONE',  ( 0.000000000000000000, 0.000000000000000000, 1.000000000000000000 ) ) ;
#90 = ORIENTED_EDGE ( 'NONE', *, *, #21, .F. ) ;
#91 = CC_DESIGN_APPROVAL ( #75, ( #137 ) ) ;
#92 = DIRECTION ( 'NONE',  ( -0.000000000000000000, 1.000000000000000000, -0.000000000000000000 ) ) ;
#93 = ORIENTED_EDGE ( 'NONE', *, *, #63, .T. ) ;
#94 = CC_DESIGN_PERSON_AND_ORGANIZATION_ASSIGNMENT ( #59, #159, ( #24 ) ) ;
#95 = DIRECTION ( 'NONE',  ( -0.000000000000000000, 1.000000000000000000, -0.000000000000000000 ) ) ;
#96 = DIRECTION ( 'NONE',  ( -0.000000000000000000, 1.000000000000000000, -0.000000000000000000 ) ) ;
#97 = APPROVAL_ROLE ( '' ) ;
#98 = AXIS2_PLACEMENT_3D ( 'NONE', #148, #130, #204 ) ;
#99 = CYLINDRICAL_SURFACE ( 'NONE', #34, 19.10000000000000142 ) ;
#100 = CIRCLE ( 'NONE', #235, 19.10000000000000142 ) ;
#101 = CC_DESIGN_DATE_AND_TIME_ASSIGNMENT ( #233, #232, ( #137 ) ) ;
#102 = CALENDAR_DATE ( 2026, 20, 1 ) ;
#103 = VECTOR ( 'NONE', #203, 1000.000000000000000 ) ;
#104 = APPROVAL_PERSON_ORGANIZATION ( #85, #75, #2 ) ;
#105 = DATE_AND_TIME ( #139, #154 ) ;
#106 = ORIENTED_EDGE ( 'NONE', *, *, #246, .F. ) ;
#107 = DIRECTION ( 'NONE',  ( -0.000000000000000000, 1.000000000000000000, -0.000000000000000000 ) ) ;
#108 = LOCAL_TIME ( 10, 19, 41.00000000000000000, #174 ) ;
#109 = LINE ( 'NONE', #6, #177 ) ;
#110 = CARTESIAN_POINT ( 'NONE',  ( 0.000000000000000000, 0.000000000000000000, 0.000000000000000000 ) ) ;
#111 = CYLINDRICAL_SURFACE ( 'NONE', #98, 11.09999999999999964 ) ;
#112 = ORIENTED_EDGE ( 'NONE', *, *, #142, .T. ) ;
#113 = LINE ( 'NONE', #241, #136 ) ;
#114 = ORIENTED_EDGE ( 'NONE', *, *, #175, .T. ) ;
#115 = CC_DESIGN_PERSON_AND_ORGANIZATION_ASSIGNMENT ( #190, #242, ( #147 ) ) ;
#116 = ORIENTED_EDGE ( 'NONE', *, *, #172, .F. ) ;
#117 = CARTESIAN_POINT ( 'NONE',  ( 1.359357947053562156E-15, -3.000000000000000000, -11.09999999999999964 ) ) ;
#118 = ORIENTED_EDGE ( 'NONE', *, *, #169, .T. ) ;
#119 = LOCAL_TIME ( 10, 19, 41.00000000000000000, #181 ) ;
#120 = CARTESIAN_POINT ( 'NONE',  ( 0.000000000000000000, 0.000000000000000000, 19.10000000000000142 ) ) ;
#121 = PERSON_AND_ORGANIZATION_ROLE ( 'design_owner' ) ;
#122 = CARTESIAN_POINT ( 'NONE',  ( 0.000000000000000000, 0.000000000000000000, 0.000000000000000000 ) ) ;
#123 = CALENDAR_DATE ( 2026, 20, 1 ) ;
#124 = CC_DESIGN_PERSON_AND_ORGANIZATION_ASSIGNMENT ( #125, #140, ( #24 ) ) ;
#125 = PERSON_AND_ORGANIZATION ( #18, #143 ) ;
#126 = AXIS2_PLACEMENT_3D ( 'NONE', #151, #96, #210 ) ;
#127 = CIRCLE ( 'NONE', #212, 11.09999999999999964 ) ;
#128 = EDGE_CURVE ( 'NONE', #69, #49, #171, .T. ) ;
#129 = DIRECTION ( 'NONE',  ( -0.000000000000000000, 1.000000000000000000, -0.000000000000000000 ) ) ;
#130 = DIRECTION ( 'NONE',  ( -0.000000000000000000, 1.000000000000000000, -0.000000000000000000 ) ) ;
#131 = PLANE ( 'NONE',  #23 ) ;
#132 = ORIENTED_EDGE ( 'NONE', *, *, #169, .F. ) ;
#133 = AXIS2_PLACEMENT_3D ( 'NONE', #183, #237, #58 ) ;
#134 = DIRECTION ( 'NONE',  ( 0.000000000000000000, 0.000000000000000000, 1.000000000000000000 ) ) ;
#135 = CARTESIAN_POINT ( 'NONE',  ( 0.000000000000000000, -3.000000000000000000, 11.09999999999999964 ) ) ;
#136 = VECTOR ( 'NONE', #160, 1000.000000000000000 ) ;
#137 = SECURITY_CLASSIFICATION ( '', '', #61 ) ;
#138 = CYLINDRICAL_SURFACE ( 'NONE', #193, 11.09999999999999964 ) ;
#139 = CALENDAR_DATE ( 2026, 20, 1 ) ;
#140 = PERSON_AND_ORGANIZATION_ROLE ( 'design_supplier' ) ;
#141 = CALENDAR_DATE ( 2026, 20, 1 ) ;
#142 = EDGE_CURVE ( 'NONE', #49, #224, #113, .T. ) ;
#143 = ORGANIZATION ( 'UNSPECIFIED', 'UNSPECIFIED', '' ) ;
#144 = VERTEX_POINT ( 'NONE', #26 ) ;
#145 = CARTESIAN_POINT ( 'NONE',  ( 1.359357947053562156E-15, 0.000000000000000000, -11.09999999999999964 ) ) ;
#146 = EDGE_LOOP ( 'NONE', ( #118, #164, #116, #28 ) ) ;
#147 = PRODUCT_DEFINITION ( 'UNKNOWN', '', #24, #216 ) ;
#148 = CARTESIAN_POINT ( 'NONE',  ( 0.000000000000000000, 0.000000000000000000, 0.000000000000000000 ) ) ;
#149 = DIRECTION ( 'NONE',  ( 0.000000000000000000, 0.000000000000000000, 1.000000000000000000 ) ) ;
#150 = AXIS2_PLACEMENT_3D ( 'NONE', #36, #95, #10 ) ;
#151 = CARTESIAN_POINT ( 'NONE',  ( 0.000000000000000000, 0.000000000000000000, 0.000000000000000000 ) ) ;
#152 = CARTESIAN_POINT ( 'NONE',  ( 0.000000000000000000, 0.000000000000000000, 0.000000000000000000 ) ) ;
#153 = EDGE_CURVE ( 'NONE', #9, #224, #230, .T. ) ;
#154 = LOCAL_TIME ( 10, 19, 41.00000000000000000, #83 ) ;
#155 = CARTESIAN_POINT ( 'NONE',  ( 0.000000000000000000, 0.000000000000000000, 0.000000000000000000 ) ) ;
#156 = DATE_AND_TIME ( #123, #168 ) ;
#157 = UNCERTAINTY_MEASURE_WITH_UNIT (LENGTH_MEASURE( 1.000000000000000082E-05 ), #31, 'distance_accuracy_value', 'NONE');
#158 = CIRCLE ( 'NONE', #133, 11.09999999999999964 ) ;
#159 = PERSON_AND_ORGANIZATION_ROLE ( 'creator' ) ;
#160 = DIRECTION ( 'NONE',  ( -0.000000000000000000, 1.000000000000000000, -0.000000000000000000 ) ) ;
#161 = DIRECTION ( 'NONE',  ( 0.000000000000000000, 0.000000000000000000, 1.000000000000000000 ) ) ;
#162 = DIRECTION ( 'NONE',  ( 0.000000000000000000, 0.000000000000000000, 1.000000000000000000 ) ) ;
#163 = ORIENTED_EDGE ( 'NONE', *, *, #82, .T. ) ;
#164 = ORIENTED_EDGE ( 'NONE', *, *, #70, .T. ) ;
#165 = ORIENTED_EDGE ( 'NONE', *, *, #128, .F. ) ;
#166 = FACE_OUTER_BOUND ( 'NONE', #167, .T. ) ;
#167 = EDGE_LOOP ( 'NONE', ( #209, #202 ) ) ;
#168 = LOCAL_TIME ( 10, 19, 41.00000000000000000, #173 ) ;
#169 = EDGE_CURVE ( 'NONE', #49, #69, #5, .T. ) ;
#170 = FACE_OUTER_BOUND ( 'NONE', #146, .T. ) ;
#171 = CIRCLE ( 'NONE', #3, 19.10000000000000142 ) ;
#172 = EDGE_CURVE ( 'NONE', #224, #9, #100, .T. ) ;
#173 = COORDINATED_UNIVERSAL_TIME_OFFSET ( 10, 0, .AHEAD. ) ;
#174 = COORDINATED_UNIVERSAL_TIME_OFFSET ( 10, 0, .AHEAD. ) ;
#175 = EDGE_CURVE ( 'NONE', #223, #243, #158, .T. ) ;
#176 = CLOSED_SHELL ( 'NONE', ( #200, #19, #179, #14, #221, #238 ) ) ;
#177 = VECTOR ( 'NONE', #29, 1000.000000000000000 ) ;
#178 = PERSON_AND_ORGANIZATION ( #18, #143 ) ;
#179 = ADVANCED_FACE ( 'NONE', ( #247 ), #138, .F. ) ;
#180 = PERSON_AND_ORGANIZATION_ROLE ( 'classification_officer' ) ;
#181 = COORDINATED_UNIVERSAL_TIME_OFFSET ( 10, 0, .AHEAD. ) ;
#182 = EDGE_LOOP ( 'NONE', ( #93, #114 ) ) ;
#183 = CARTESIAN_POINT ( 'NONE',  ( 0.000000000000000000, -3.000000000000000000, 0.000000000000000000 ) ) ;
#184 = APPROVAL_PERSON_ORGANIZATION ( #231, #67, #97 ) ;
#185 = DIRECTION ( 'NONE',  ( -0.000000000000000000, 1.000000000000000000, -0.000000000000000000 ) ) ;
#186 = DIRECTION ( 'NONE',  ( -0.000000000000000000, 1.000000000000000000, -0.000000000000000000 ) ) ;
#187 = CC_DESIGN_DATE_AND_TIME_ASSIGNMENT ( #1, #234, ( #147 ) ) ;
#188 = DIRECTION ( 'NONE',  ( -0.000000000000000000, 1.000000000000000000, -0.000000000000000000 ) ) ;
#189 = CARTESIAN_POINT ( 'NONE',  ( 11.09999999999999964, -3.000000000000000000, 0.000000000000000000 ) ) ;
#190 = PERSON_AND_ORGANIZATION ( #18, #143 ) ;
#191 = ORIENTED_EDGE ( 'NONE', *, *, #175, .F. ) ;
#192 = PRODUCT_RELATED_PRODUCT_CATEGORY ( 'detail', '', ( #46 ) ) ;
#193 = AXIS2_PLACEMENT_3D ( 'NONE', #122, #245, #33 ) ;
#194 = DIRECTION ( 'NONE',  ( 0.000000000000000000, -0.000000000000000000, -1.000000000000000000 ) ) ;
#195 = APPLICATION_PROTOCOL_DEFINITION ( 'international standard', 'config_control_design', 1994, #66 ) ;
#196 = COORDINATED_UNIVERSAL_TIME_OFFSET ( 10, 0, .AHEAD. ) ;
#197 =( GEOMETRIC_REPRESENTATION_CONTEXT ( 3 ) GLOBAL_UNCERTAINTY_ASSIGNED_CONTEXT ( ( #157 ) ) GLOBAL_UNIT_ASSIGNED_CONTEXT ( ( #31, #214, #229 ) ) REPRESENTATION_CONTEXT ( 'NONE', 'WORKASPACE' ) );
#198 = APPROVAL_STATUS ( 'not_yet_approved' ) ;
#199 = ADVANCED_BREP_SHAPE_REPRESENTATION ( 'M20 G10 FW_REV_', ( #17, #86 ), #197 ) ;
#200 = ADVANCED_FACE ( 'NONE', ( #170 ), #53, .T. ) ;
#201 = APPROVAL_DATE_TIME ( #105, #65 ) ;
#202 = ORIENTED_EDGE ( 'NONE', *, *, #153, .T. ) ;
#203 = DIRECTION ( 'NONE',  ( -0.000000000000000000, 1.000000000000000000, -0.000000000000000000 ) ) ;
#204 = DIRECTION ( 'NONE',  ( 0.000000000000000000, 0.000000000000000000, 1.000000000000000000 ) ) ;
#205 = DIRECTION ( 'NONE',  ( 0.000000000000000000, 0.000000000000000000, 1.000000000000000000 ) ) ;
#206 = CARTESIAN_POINT ( 'NONE',  ( 0.000000000000000000, -3.000000000000000000, 19.10000000000000142 ) ) ;
#207 = ORIENTED_EDGE ( 'NONE', *, *, #246, .T. ) ;
#208 = CARTESIAN_POINT ( 'NONE',  ( 0.000000000000000000, -3.000000000000000000, 0.000000000000000000 ) ) ;
#209 = ORIENTED_EDGE ( 'NONE', *, *, #172, .T. ) ;
#210 = DIRECTION ( 'NONE',  ( 0.000000000000000000, 0.000000000000000000, 1.000000000000000000 ) ) ;
#211 = CARTESIAN_POINT ( 'NONE',  ( 11.09999999999999964, 0.000000000000000000, 0.000000000000000000 ) ) ;
#212 = AXIS2_PLACEMENT_3D ( 'NONE', #25, #129, #47 ) ;
#213 = LOCAL_TIME ( 10, 19, 41.00000000000000000, #196 ) ;
#214 =( NAMED_UNIT ( * ) PLANE_ANGLE_UNIT ( ) SI_UNIT ( $, .RADIAN. ) );
#215 = FACE_OUTER_BOUND ( 'NONE', #76, .T. ) ;
#216 = DESIGN_CONTEXT ( 'detailed design', #66, 'design' ) ;
#217 = APPROVAL_ROLE ( '' ) ;
#218 = DIRECTION ( 'NONE',  ( -0.000000000000000000, 1.000000000000000000, -0.000000000000000000 ) ) ;
#219 = FACE_OUTER_BOUND ( 'NONE', #84, .T. ) ;
#220 = DIRECTION ( 'NONE',  ( 0.000000000000000000, 0.000000000000000000, 1.000000000000000000 ) ) ;
#221 = ADVANCED_FACE ( 'NONE', ( #215 ), #99, .T. ) ;
#222 = EDGE_LOOP ( 'NONE', ( #132, #165 ) ) ;
#223 = VERTEX_POINT ( 'NONE', #117 ) ;
#224 = VERTEX_POINT ( 'NONE', #120 ) ;
#225 = DATE_AND_TIME ( #249, #213 ) ;
#226 = CIRCLE ( 'NONE', #126, 11.09999999999999964 ) ;
#227 = PLANE ( 'NONE',  #38 ) ;
#228 = FACE_BOUND ( 'NONE', #88, .T. ) ;
#229 =( NAMED_UNIT ( * ) SI_UNIT ( $, .STERADIAN. ) SOLID_ANGLE_UNIT ( ) );
#230 = CIRCLE ( 'NONE', #248, 19.10000000000000142 ) ;
#231 = PERSON_AND_ORGANIZATION ( #18, #143 ) ;
#232 = DATE_TIME_ROLE ( 'classification_date' ) ;
#233 = DATE_AND_TIME ( #102, #119 ) ;
#234 = DATE_TIME_ROLE ( 'creation_date' ) ;
#235 = AXIS2_PLACEMENT_3D ( 'NONE', #110, #186, #27 ) ;
#236 = ORIENTED_EDGE ( 'NONE', *, *, #41, .F. ) ;
#237 = DIRECTION ( 'NONE',  ( -0.000000000000000000, 1.000000000000000000, -0.000000000000000000 ) ) ;
#238 = ADVANCED_FACE ( 'NONE', ( #228, #166 ), #227, .F. ) ;
#239 = CARTESIAN_POINT ( 'NONE',  ( 2.339075386371445116E-15, -3.000000000000000000, -19.10000000000000142 ) ) ;
#240 = CARTESIAN_POINT ( 'NONE',  ( 2.339075386371445116E-15, 0.000000000000000000, -19.10000000000000142 ) ) ;
#241 = CARTESIAN_POINT ( 'NONE',  ( 0.000000000000000000, 0.000000000000000000, 19.10000000000000142 ) ) ;
#242 = PERSON_AND_ORGANIZATION_ROLE ( 'creator' ) ;
#243 = VERTEX_POINT ( 'NONE', #135 ) ;
#244 = VERTEX_POINT ( 'NONE', #13 ) ;
#245 = DIRECTION ( 'NONE',  ( -0.000000000000000000, 1.000000000000000000, -0.000000000000000000 ) ) ;
#246 = EDGE_CURVE ( 'NONE', #144, #244, #226, .T. ) ;
#247 = FACE_OUTER_BOUND ( 'NONE', #72, .T. ) ;
#248 = AXIS2_PLACEMENT_3D ( 'NONE', #73, #218, #89 ) ;
#249 = CALENDAR_DATE ( 2026, 20, 1 ) ;
ENDSEC;
END-ISO-10303-21;
