ISO-10303-21;
HEADER;
FILE_DESCRIPTION (( 'STEP AP203' ),
    '1' );
FILE_NAME ('M8_REV_.step',
    '2025-08-17T05:22:45',
    ( '' ),
    ( '' ),
    'SwSTEP 2.0',
    'SolidWorks 2024',
    '' );
FILE_SCHEMA (( 'CONFIG_CONTROL_DESIGN' ));
ENDSEC;

DATA;
#1 = CARTESIAN_POINT ( 'NONE',  ( -1.108894674999346464, -1.000000000000000222, 7.316443985964633967 ) ) ;
#2 = DIRECTION ( 'NONE',  ( 0.000000000000000000, 0.000000000000000000, 1.000000000000000000 ) ) ;
#3 = EDGE_CURVE ( 'NONE', #109, #251, #131, .T. ) ;
#4 = PERSON_AND_ORGANIZATION_ROLE ( 'creator' ) ;
#5 = CARTESIAN_POINT ( 'NONE',  ( 0.3809542064669323436, -1.000000000000000000, 7.390187676410874040 ) ) ;
#6 = EDGE_LOOP ( 'NONE', ( #135, #93, #45, #91 ) ) ;
#7 = ORIENTED_EDGE ( 'NONE', *, *, #99, .T. ) ;
#8 = ADVANCED_FACE ( 'NONE', ( #86 ), #271, .T. ) ;
#9 = AXIS2_PLACEMENT_3D ( 'NONE', #150, #147, #92 ) ;
#10 = CIRCLE ( 'NONE', #297, 7.400000000000000355 ) ;
#11 = ORIENTED_EDGE ( 'NONE', *, *, #246, .F. ) ;
#12 = MECHANICAL_CONTEXT ( 'NONE', #260, 'mechanical' ) ;
#13 = ORIENTED_EDGE ( 'NONE', *, *, #3, .F. ) ;
#14 = CYLINDRICAL_SURFACE ( 'NONE', #195, 7.400000000000000355 ) ;
#15 = DIRECTION ( 'NONE',  ( -0.000000000000000000, -1.000000000000000000, -0.000000000000000000 ) ) ;
#16 = CARTESIAN_POINT ( 'NONE',  ( 0.000000000000000000, 1.000000000000000000, 0.000000000000000000 ) ) ;
#17 = CYLINDRICAL_SURFACE ( 'NONE', #158, 4.049999999999999822 ) ;
#18 = DIRECTION ( 'NONE',  ( 0.000000000000000000, 0.000000000000000000, -1.000000000000000000 ) ) ;
#19 = ADVANCED_FACE ( 'NONE', ( #153 ), #198, .F. ) ;
#20 = EDGE_LOOP ( 'NONE', ( #62, #250, #148, #11 ) ) ;
#21 = APPROVAL_PERSON_ORGANIZATION ( #300, #212, #261 ) ;
#22 = CARTESIAN_POINT ( 'NONE',  ( 0.000000000000000000, -1.000000000000000000, 0.000000000000000000 ) ) ;
#23 = VERTEX_POINT ( 'NONE', #273 ) ;
#24 = ADVANCED_FACE ( 'NONE', ( #247 ), #275, .T. ) ;
#25 = CALENDAR_DATE ( 2025, 17, 8 ) ;
#26 = ORIENTED_EDGE ( 'NONE', *, *, #170, .T. ) ;
#27 = CARTESIAN_POINT ( 'NONE',  ( -0.3809542064669328987, 1.000000000000000000, 7.390187676410873152 ) ) ;
#28 = AXIS2_PLACEMENT_3D ( 'NONE', #42, #248, #308 ) ;
#29 = CARTESIAN_POINT ( 'NONE',  ( 0.000000000000000000, -1.000000000000000000, -7.400000000000000355 ) ) ;
#30 = CARTESIAN_POINT ( 'NONE',  ( 1.108894674999346908, 0.9999999999999995559, 7.316443985964636632 ) ) ;
#31 = APPLICATION_PROTOCOL_DEFINITION ( 'international standard', 'config_control_design', 1994, #287 ) ;
#32 = CARTESIAN_POINT ( 'NONE',  ( 0.000000000000000000, -1.000000000000000000, 0.000000000000000000 ) ) ;
#33 = EDGE_CURVE ( 'NONE', #189, #155, #255, .T. ) ;
#34 = LINE ( 'NONE', #161, #63 ) ;
#35 = ORIENTED_EDGE ( 'NONE', *, *, #33, .T. ) ;
#36 = FACE_OUTER_BOUND ( 'NONE', #302, .T. ) ;
#37 = CARTESIAN_POINT ( 'NONE',  ( -0.3809542064669329542, 1.000000000000000000, 4.032043389222783603 ) ) ;
#38 = CARTESIAN_POINT ( 'NONE',  ( -0.3809542064669330097, 1.000000000000000000, 0.000000000000000000 ) ) ;
#39 = AXIS2_PLACEMENT_3D ( 'NONE', #156, #183, #163 ) ;
#40 = VERTEX_POINT ( 'NONE', #30 ) ;
#41 = FACE_OUTER_BOUND ( 'NONE', #89, .T. ) ;
#42 = CARTESIAN_POINT ( 'NONE',  ( 0.2066749941009226876, -1.478828200655941671, 7.400000000000000355 ) ) ;
#43 = VECTOR ( 'NONE', #207, 1000.000000000000000 ) ;
#44 = ADVANCED_FACE ( 'NONE', ( #74 ), #17, .F. ) ;
#45 = ORIENTED_EDGE ( 'NONE', *, *, #193, .T. ) ;
#46 = EDGE_CURVE ( 'NONE', #188, #171, #245, .T. ) ;
#47 = VERTEX_POINT ( 'NONE', #94 ) ;
#48 = DIRECTION ( 'NONE',  ( 0.000000000000000000, 0.000000000000000000, 1.000000000000000000 ) ) ;
#49 = CARTESIAN_POINT ( 'NONE',  ( 0.3809542064669323436, -1.000000000000000000, 4.032043389222783603 ) ) ;
#50 = CALENDAR_DATE ( 2025, 17, 8 ) ;
#51 = COORDINATED_UNIVERSAL_TIME_OFFSET ( 10, 0, .AHEAD. ) ;
#52 = VECTOR ( 'NONE', #293, 1000.000000000000000 ) ;
#53 = CARTESIAN_POINT ( 'NONE',  ( 0.3809542064669323436, -1.000000000000000000, 4.032043389222783603 ) ) ;
#54 = PRODUCT_DEFINITION ( 'UNKNOWN', '', #134, #215 ) ;
#55 = DIRECTION ( 'NONE',  ( 0.000000000000000000, 0.000000000000000000, 1.000000000000000000 ) ) ;
#56 = ORIENTED_EDGE ( 'NONE', *, *, #79, .F. ) ;
#57 = PERSON_AND_ORGANIZATION ( #120, #256 ) ;
#58 = DIRECTION ( 'NONE',  ( 0.000000000000000000, 0.000000000000000000, 1.000000000000000000 ) ) ;
#59 = MANIFOLD_SOLID_BREP ( 'Cut-Extrude1', #87 ) ;
#60 = FACE_OUTER_BOUND ( 'NONE', #20, .T. ) ;
#61 = CARTESIAN_POINT ( 'NONE',  ( 0.8675630431562928457, 0.3369467909110820392, 7.353020683875947761 ) ) ;
#62 = ORIENTED_EDGE ( 'NONE', *, *, #33, .F. ) ;
#63 = VECTOR ( 'NONE', #283, 1000.000000000000000 ) ;
#64 = CARTESIAN_POINT ( 'NONE',  ( 0.000000000000000000, 1.000000000000000000, -4.049999999999999822 ) ) ;
#65 = CARTESIAN_POINT ( 'NONE',  ( 0.000000000000000000, 1.000000000000000000, 0.000000000000000000 ) ) ;
#66 = EDGE_LOOP ( 'NONE', ( #121, #71, #26, #35, #224, #174 ) ) ;
#67 = EDGE_CURVE ( 'NONE', #251, #139, #77, .T. ) ;
#68 = AXIS2_PLACEMENT_3D ( 'NONE', #16, #178, #289 ) ;
#69 = ORIENTED_EDGE ( 'NONE', *, *, #117, .T. ) ;
#70 = CIRCLE ( 'NONE', #228, 7.400000000000000355 ) ;
#71 = ORIENTED_EDGE ( 'NONE', *, *, #262, .F. ) ;
#72 = CARTESIAN_POINT ( 'NONE',  ( 0.000000000000000000, 1.000000000000000000, -7.400000000000000355 ) ) ;
#73 = APPLICATION_PROTOCOL_DEFINITION ( 'international standard', 'config_control_design', 1994, #260 ) ;
#74 = FACE_OUTER_BOUND ( 'NONE', #6, .T. ) ;
#75 = ORIENTED_EDGE ( 'NONE', *, *, #133, .F. ) ;
#76 = APPROVAL_STATUS ( 'not_yet_approved' ) ;
#77 = LINE ( 'NONE', #186, #52 ) ;
#78 = CARTESIAN_POINT ( 'NONE',  ( 0.000000000000000000, -1.000000000000000000, 0.000000000000000000 ) ) ;
#79 = EDGE_CURVE ( 'NONE', #188, #47, #105, .T. ) ;
#80 = VECTOR ( 'NONE', #268, 1000.000000000000000 ) ;
#81 = CARTESIAN_POINT ( 'NONE',  ( 0.6247182611082291448, -0.3302637641983430239, 7.377621968195173352 ) ) ;
#82 = APPROVAL_DATE_TIME ( #253, #212 ) ;
#83 = ORIENTED_EDGE ( 'NONE', *, *, #79, .T. ) ;
#84 = CALENDAR_DATE ( 2025, 17, 8 ) ;
#85 = CC_DESIGN_PERSON_AND_ORGANIZATION_ASSIGNMENT ( #281, #4, ( #134 ) ) ;
#86 = FACE_OUTER_BOUND ( 'NONE', #66, .T. ) ;
#87 = CLOSED_SHELL ( 'NONE', ( #19, #152, #8, #292, #196, #44, #223, #24 ) ) ;
#88 = CARTESIAN_POINT ( 'NONE',  ( -0.3809542064669328987, 1.000000000000000000, 7.390187676410873152 ) ) ;
#89 = EDGE_LOOP ( 'NONE', ( #221, #272, #209, #75 ) ) ;
#90 = DIRECTION ( 'NONE',  ( 0.000000000000000000, 0.000000000000000000, -1.000000000000000000 ) ) ;
#91 = ORIENTED_EDGE ( 'NONE', *, *, #99, .F. ) ;
#92 = DIRECTION ( 'NONE',  ( 0.000000000000000000, -0.000000000000000000, 1.000000000000000000 ) ) ;
#93 = ORIENTED_EDGE ( 'NONE', *, *, #266, .T. ) ;
#94 = CARTESIAN_POINT ( 'NONE',  ( 1.108894674999345575, 1.000000000000000000, 3.895234601376160732 ) ) ;
#95 = DIRECTION ( 'NONE',  ( 0.000000000000000000, 0.000000000000000000, -1.000000000000000000 ) ) ;
#96 = DIRECTION ( 'NONE',  ( 0.000000000000000000, 1.000000000000000000, 0.000000000000000000 ) ) ;
#97 = AXIS2_PLACEMENT_3D ( 'NONE', #32, #108, #227 ) ;
#98 = CC_DESIGN_APPROVAL ( #311, ( #54 ) ) ;
#99 = EDGE_CURVE ( 'NONE', #243, #139, #239, .T. ) ;
#100 = DIRECTION ( 'NONE',  ( 0.000000000000000000, 1.000000000000000000, 0.000000000000000000 ) ) ;
#101 = DIRECTION ( 'NONE',  ( 0.000000000000000000, -0.000000000000000000, 1.000000000000000000 ) ) ;
#102 = CARTESIAN_POINT ( 'NONE',  ( -1.108894674999346464, -1.000000000000000222, 7.316443985964633967 ) ) ;
#103 =( GEOMETRIC_REPRESENTATION_CONTEXT ( 3 ) GLOBAL_UNCERTAINTY_ASSIGNED_CONTEXT ( ( #138 ) ) GLOBAL_UNIT_ASSIGNED_CONTEXT ( ( #263, #126, #118 ) ) REPRESENTATION_CONTEXT ( 'NONE', 'WORKASPACE' ) );
#104 = CARTESIAN_POINT ( 'NONE',  ( 0.6274429408240262962, -0.3227777682039449370, 4.008754721136762456 ) ) ;
#105 =( BOUNDED_CURVE ( )  B_SPLINE_CURVE ( 3, ( #49, #104, #254, #107 ),
 .UNSPECIFIED., .F., .F. ) 
 B_SPLINE_CURVE_WITH_KNOTS ( ( 4, 4 ),
 ( 1.664998357174723775, 1.848139329433916123 ),
 .UNSPECIFIED. ) 
 CURVE ( )  GEOMETRIC_REPRESENTATION_ITEM ( )  RATIONAL_B_SPLINE_CURVE ( ( 1.000000000000000000, 0.9972069012221391748, 0.9972069012221391748, 1.000000000000000000 ) ) 
 REPRESENTATION_ITEM ( '' )  );
#106 = DATE_AND_TIME ( #50, #169 ) ;
#107 = CARTESIAN_POINT ( 'NONE',  ( 1.108894674999345575, 1.000000000000000000, 3.895234601376160732 ) ) ;
#108 = DIRECTION ( 'NONE',  ( 0.000000000000000000, 1.000000000000000000, 0.000000000000000000 ) ) ;
#109 = VERTEX_POINT ( 'NONE', #29 ) ;
#110 = APPROVAL_ROLE ( '' ) ;
#111 = APPROVAL_PERSON_ORGANIZATION ( #114, #132, #190 ) ;
#112 = PERSON_AND_ORGANIZATION ( #120, #256 ) ;
#113 = CARTESIAN_POINT ( 'NONE',  ( 0.000000000000000000, -1.000000000000000000, 0.000000000000000000 ) ) ;
#114 = PERSON_AND_ORGANIZATION ( #120, #256 ) ;
#115 = AXIS2_PLACEMENT_3D ( 'NONE', #216, #167, #258 ) ;
#116 = SHAPE_DEFINITION_REPRESENTATION ( #144, #313 ) ;
#117 = EDGE_CURVE ( 'NONE', #171, #109, #70, .T. ) ;
#118 =( NAMED_UNIT ( * ) SI_UNIT ( $, .STERADIAN. ) SOLID_ANGLE_UNIT ( ) );
#119 = DIRECTION ( 'NONE',  ( 0.000000000000000000, -0.000000000000000000, 1.000000000000000000 ) ) ;
#120 = PERSON ( 'UNSPECIFIED', 'UNSPECIFIED', 'UNSPECIFIED', ('UNSPECIFIED'), ('UNSPECIFIED'), ('UNSPECIFIED') ) ;
#121 = ORIENTED_EDGE ( 'NONE', *, *, #306, .F. ) ;
#122 = CARTESIAN_POINT ( 'NONE',  ( -1.108894674999346464, -1.000000000000000222, 3.895234601376160288 ) ) ;
#123 = PRODUCT ( 'M8_REV_', 'M8_REV_', '', ( #12 ) ) ;
#124 = EDGE_LOOP ( 'NONE', ( #197, #298, #129, #69 ) ) ;
#125 = SECURITY_CLASSIFICATION ( '', '', #180 ) ;
#126 =( NAMED_UNIT ( * ) PLANE_ANGLE_UNIT ( ) SI_UNIT ( $, .RADIAN. ) );
#127 = EDGE_CURVE ( 'NONE', #188, #243, #214, .T. ) ;
#128 = PLANE ( 'NONE',  #179 ) ;
#129 = ORIENTED_EDGE ( 'NONE', *, *, #168, .F. ) ;
#130 = PERSON_AND_ORGANIZATION_ROLE ( 'creator' ) ;
#131 = CIRCLE ( 'NONE', #304, 7.400000000000000355 ) ;
#132 = APPROVAL ( #305, 'UNSPECIFIED' ) ;
#133 = EDGE_CURVE ( 'NONE', #155, #23, #137, .T. ) ;
#134 = PRODUCT_DEFINITION_FORMATION_WITH_SPECIFIED_SOURCE ( 'ANY', '', #123, .NOT_KNOWN. ) ;
#135 = ORIENTED_EDGE ( 'NONE', *, *, #236, .F. ) ;
#136 =( BOUNDED_CURVE ( )  B_SPLINE_CURVE ( 3, ( #5, #81, #61, #237 ),
 .UNSPECIFIED., .F., .F. ) 
 B_SPLINE_CURVE_WITH_KNOTS ( ( 4, 4 ),
 ( 1.622299391156254655, 1.721213523767322062 ),
 .UNSPECIFIED. ) 
 CURVE ( )  GEOMETRIC_REPRESENTATION_ITEM ( )  RATIONAL_B_SPLINE_CURVE ( ( 1.000000000000000000, 0.9991848323762360096, 0.9991848323762360096, 1.000000000000000000 ) ) 
 REPRESENTATION_ITEM ( '' )  );
#137 = LINE ( 'NONE', #38, #43 ) ;
#138 = UNCERTAINTY_MEASURE_WITH_UNIT (LENGTH_MEASURE( 1.000000000000000082E-05 ), #263, 'distance_accuracy_value', 'NONE');
#139 = VERTEX_POINT ( 'NONE', #164 ) ;
#140 = APPROVAL_DATE_TIME ( #166, #132 ) ;
#141 = AXIS2_PLACEMENT_3D ( 'NONE', #65, #100, #2 ) ;
#142 = AXIS2_PLACEMENT_3D ( 'NONE', #269, #192, #290 ) ;
#143 = CARTESIAN_POINT ( 'NONE',  ( -0.8707693984997199044, -0.3457561798158954591, 3.963024061605306514 ) ) ;
#144 = PRODUCT_DEFINITION_SHAPE ( 'NONE', 'NONE',  #54 ) ;
#145 = CARTESIAN_POINT ( 'NONE',  ( 0.3809542064669323436, -1.000000000000000000, 0.000000000000000000 ) ) ;
#146 = CC_DESIGN_DATE_AND_TIME_ASSIGNMENT ( #205, #232, ( #54 ) ) ;
#147 = DIRECTION ( 'NONE',  ( 0.000000000000000000, 1.000000000000000000, 0.000000000000000000 ) ) ;
#148 = ORIENTED_EDGE ( 'NONE', *, *, #3, .T. ) ;
#149 = PERSON_AND_ORGANIZATION_ROLE ( 'design_owner' ) ;
#150 = CARTESIAN_POINT ( 'NONE',  ( 0.000000000000000000, 1.000000000000000000, 0.000000000000000000 ) ) ;
#151 = CARTESIAN_POINT ( 'NONE',  ( 0.000000000000000000, 1.000000000000000000, 0.000000000000000000 ) ) ;
#152 = ADVANCED_FACE ( 'NONE', ( #60 ), #284, .T. ) ;
#153 = FACE_OUTER_BOUND ( 'NONE', #201, .T. ) ;
#154 = CC_DESIGN_APPROVAL ( #132, ( #125 ) ) ;
#155 = VERTEX_POINT ( 'NONE', #88 ) ;
#156 = CARTESIAN_POINT ( 'NONE',  ( 0.000000000000000000, 1.000000000000000000, 0.000000000000000000 ) ) ;
#157 = CC_DESIGN_PERSON_AND_ORGANIZATION_ASSIGNMENT ( #112, #210, ( #134 ) ) ;
#158 = AXIS2_PLACEMENT_3D ( 'NONE', #151, #15, #90 ) ;
#159 = AXIS2_PLACEMENT_3D ( 'NONE', #78, #181, #58 ) ;
#160 = APPROVAL_DATE_TIME ( #187, #311 ) ;
#161 = CARTESIAN_POINT ( 'NONE',  ( 0.000000000000000000, 1.000000000000000000, -7.400000000000000355 ) ) ;
#162 = ORIENTED_EDGE ( 'NONE', *, *, #67, .F. ) ;
#163 = DIRECTION ( 'NONE',  ( 0.000000000000000000, 0.000000000000000000, 1.000000000000000000 ) ) ;
#164 = CARTESIAN_POINT ( 'NONE',  ( -1.108894674999346464, -1.000000000000000222, 3.895234601376160288 ) ) ;
#165 = EDGE_LOOP ( 'NONE', ( #235, #220, #56, #204 ) ) ;
#166 = DATE_AND_TIME ( #264, #286 ) ;
#167 = DIRECTION ( 'NONE',  ( -0.000000000000000000, -1.000000000000000000, -0.000000000000000000 ) ) ;
#168 = EDGE_CURVE ( 'NONE', #171, #40, #136, .T. ) ;
#169 = LOCAL_TIME ( 15, 22, 45.00000000000000000, #278 ) ;
#170 = EDGE_CURVE ( 'NONE', #40, #189, #10, .T. ) ;
#171 = VERTEX_POINT ( 'NONE', #185 ) ;
#172 =( BOUNDED_CURVE ( )  B_SPLINE_CURVE ( 3, ( #37, #213, #143, #122 ),
 .UNSPECIFIED., .F., .T. ) 
 B_SPLINE_CURVE_WITH_KNOTS ( ( 4, 4 ),
 ( 4.806591010764517335, 4.989731983023709461 ),
 .UNSPECIFIED. ) 
 CURVE ( )  GEOMETRIC_REPRESENTATION_ITEM ( )  RATIONAL_B_SPLINE_CURVE ( ( 1.000000000000000000, 0.9972069012221391748, 0.9972069012221391748, 1.000000000000000000 ) ) 
 REPRESENTATION_ITEM ( '' )  );
#173 = AXIS2_PLACEMENT_3D ( 'NONE', #194, #48, #217 ) ;
#174 = ORIENTED_EDGE ( 'NONE', *, *, #266, .F. ) ;
#175 = LINE ( 'NONE', #64, #80 ) ;
#176 = PERSON_AND_ORGANIZATION ( #120, #256 ) ;
#177 = ORIENTED_EDGE ( 'NONE', *, *, #236, .T. ) ;
#178 = DIRECTION ( 'NONE',  ( -0.000000000000000000, -1.000000000000000000, -0.000000000000000000 ) ) ;
#179 = AXIS2_PLACEMENT_3D ( 'NONE', #277, #182, #101 ) ;
#180 = SECURITY_CLASSIFICATION_LEVEL ( 'unclassified' ) ;
#181 = DIRECTION ( 'NONE',  ( 0.000000000000000000, 1.000000000000000000, 0.000000000000000000 ) ) ;
#182 = DIRECTION ( 'NONE',  ( 0.000000000000000000, 1.000000000000000000, 0.000000000000000000 ) ) ;
#183 = DIRECTION ( 'NONE',  ( 0.000000000000000000, 1.000000000000000000, 0.000000000000000000 ) ) ;
#184 = CC_DESIGN_APPROVAL ( #212, ( #134 ) ) ;
#185 = CARTESIAN_POINT ( 'NONE',  ( 0.3809542064669323436, -1.000000000000000000, 7.390187676410874040 ) ) ;
#186 = CARTESIAN_POINT ( 'NONE',  ( -1.108894674999346464, -1.000000000000000222, 7.400000000000000355 ) ) ;
#187 = DATE_AND_TIME ( #25, #276 ) ;
#188 = VERTEX_POINT ( 'NONE', #53 ) ;
#189 = VERTEX_POINT ( 'NONE', #72 ) ;
#190 = APPROVAL_ROLE ( '' ) ;
#191 = CARTESIAN_POINT ( 'NONE',  ( 0.000000000000000000, 1.000000000000000000, 0.000000000000000000 ) ) ;
#192 = DIRECTION ( 'NONE',  ( 0.9396926207859070956, -0.3420201433256723766, 0.000000000000000000 ) ) ;
#193 = EDGE_CURVE ( 'NONE', #23, #139, #172, .T. ) ;
#194 = CARTESIAN_POINT ( 'NONE',  ( 0.000000000000000000, 0.000000000000000000, 0.000000000000000000 ) ) ;
#195 = AXIS2_PLACEMENT_3D ( 'NONE', #222, #218, #95 ) ;
#196 = ADVANCED_FACE ( 'NONE', ( #234 ), #14, .T. ) ;
#197 = ORIENTED_EDGE ( 'NONE', *, *, #299, .F. ) ;
#198 = CYLINDRICAL_SURFACE ( 'NONE', #68, 4.049999999999999822 ) ;
#199 = CC_DESIGN_PERSON_AND_ORGANIZATION_ASSIGNMENT ( #200, #130, ( #54 ) ) ;
#200 = PERSON_AND_ORGANIZATION ( #120, #256 ) ;
#201 = EDGE_LOOP ( 'NONE', ( #226, #177, #309, #83 ) ) ;
#202 =( BOUNDED_CURVE ( )  B_SPLINE_CURVE ( 3, ( #27, #231, #312, #102 ),
 .UNSPECIFIED., .F., .T. ) 
 B_SPLINE_CURVE_WITH_KNOTS ( ( 4, 4 ),
 ( 4.763892044746047105, 4.862806177357114734 ),
 .UNSPECIFIED. ) 
 CURVE ( )  GEOMETRIC_REPRESENTATION_ITEM ( )  RATIONAL_B_SPLINE_CURVE ( ( 1.000000000000000000, 0.9991848323762360096, 0.9991848323762360096, 1.000000000000000000 ) ) 
 REPRESENTATION_ITEM ( '' )  );
#203 = DATE_TIME_ROLE ( 'classification_date' ) ;
#204 = ORIENTED_EDGE ( 'NONE', *, *, #46, .T. ) ;
#205 = DATE_AND_TIME ( #296, #249 ) ;
#206 = COORDINATED_UNIVERSAL_TIME_OFFSET ( 10, 0, .AHEAD. ) ;
#207 = DIRECTION ( 'NONE',  ( 0.000000000000000000, 0.000000000000000000, -1.000000000000000000 ) ) ;
#208 = PRODUCT_RELATED_PRODUCT_CATEGORY ( 'detail', '', ( #123 ) ) ;
#209 = ORIENTED_EDGE ( 'NONE', *, *, #193, .F. ) ;
#210 = PERSON_AND_ORGANIZATION_ROLE ( 'design_supplier' ) ;
#211 = DIRECTION ( 'NONE',  ( 0.000000000000000000, 0.000000000000000000, 1.000000000000000000 ) ) ;
#212 = APPROVAL ( #76, 'UNSPECIFIED' ) ;
#213 = CARTESIAN_POINT ( 'NONE',  ( -0.6274429408240271844, 0.3227777682039427720, 4.008754721136763344 ) ) ;
#214 = CIRCLE ( 'NONE', #159, 4.049999999999999822 ) ;
#215 = DESIGN_CONTEXT ( 'detailed design', #287, 'design' ) ;
#216 = CARTESIAN_POINT ( 'NONE',  ( 0.000000000000000000, 1.000000000000000000, 0.000000000000000000 ) ) ;
#217 = DIRECTION ( 'NONE',  ( 1.000000000000000000, 0.000000000000000000, 0.000000000000000000 ) ) ;
#218 = DIRECTION ( 'NONE',  ( -0.000000000000000000, -1.000000000000000000, -0.000000000000000000 ) ) ;
#219 = COORDINATED_UNIVERSAL_TIME_OFFSET ( 10, 0, .AHEAD. ) ;
#220 = ORIENTED_EDGE ( 'NONE', *, *, #262, .T. ) ;
#221 = ORIENTED_EDGE ( 'NONE', *, *, #246, .T. ) ;
#222 = CARTESIAN_POINT ( 'NONE',  ( 0.000000000000000000, 1.000000000000000000, 0.000000000000000000 ) ) ;
#223 = ADVANCED_FACE ( 'NONE', ( #41 ), #288, .T. ) ;
#224 = ORIENTED_EDGE ( 'NONE', *, *, #133, .T. ) ;
#225 = LINE ( 'NONE', #274, #310 ) ;
#226 = ORIENTED_EDGE ( 'NONE', *, *, #306, .T. ) ;
#227 = DIRECTION ( 'NONE',  ( 0.000000000000000000, 0.000000000000000000, 1.000000000000000000 ) ) ;
#228 = AXIS2_PLACEMENT_3D ( 'NONE', #22, #230, #55 ) ;
#229 = PERSON_AND_ORGANIZATION_ROLE ( 'classification_officer' ) ;
#230 = DIRECTION ( 'NONE',  ( 0.000000000000000000, 1.000000000000000000, 0.000000000000000000 ) ) ;
#231 = CARTESIAN_POINT ( 'NONE',  ( -0.6247182611082237047, 0.3302637641983586225, 7.377621968195176017 ) ) ;
#232 = DATE_TIME_ROLE ( 'creation_date' ) ;
#233 = ORIENTED_EDGE ( 'NONE', *, *, #117, .F. ) ;
#234 = FACE_OUTER_BOUND ( 'NONE', #124, .T. ) ;
#235 = ORIENTED_EDGE ( 'NONE', *, *, #168, .T. ) ;
#236 = EDGE_CURVE ( 'NONE', #307, #243, #175, .T. ) ;
#237 = CARTESIAN_POINT ( 'NONE',  ( 1.108894674999346908, 0.9999999999999995559, 7.316443985964636632 ) ) ;
#238 = ORIENTED_EDGE ( 'NONE', *, *, #46, .F. ) ;
#239 = CIRCLE ( 'NONE', #97, 4.049999999999999822 ) ;
#240 = APPROVAL_PERSON_ORGANIZATION ( #57, #311, #110 ) ;
#241 = DIRECTION ( 'NONE',  ( 0.000000000000000000, 0.000000000000000000, 1.000000000000000000 ) ) ;
#242 = CARTESIAN_POINT ( 'NONE',  ( 0.000000000000000000, -1.000000000000000000, -4.049999999999999822 ) ) ;
#243 = VERTEX_POINT ( 'NONE', #242 ) ;
#244 = CIRCLE ( 'NONE', #315, 4.049999999999999822 ) ;
#245 = LINE ( 'NONE', #145, #291 ) ;
#246 = EDGE_CURVE ( 'NONE', #155, #251, #202, .T. ) ;
#247 = FACE_OUTER_BOUND ( 'NONE', #165, .T. ) ;
#248 = DIRECTION ( 'NONE',  ( -0.9396926207859068736, 0.3420201433256728207, 0.000000000000000000 ) ) ;
#249 = LOCAL_TIME ( 15, 22, 45.00000000000000000, #51 ) ;
#250 = ORIENTED_EDGE ( 'NONE', *, *, #299, .T. ) ;
#251 = VERTEX_POINT ( 'NONE', #1 ) ;
#252 = PERSON_AND_ORGANIZATION ( #120, #256 ) ;
#253 = DATE_AND_TIME ( #84, #280 ) ;
#254 = CARTESIAN_POINT ( 'NONE',  ( 0.8707693984997194603, 0.3457561798158934607, 3.963024061605306514 ) ) ;
#255 = CIRCLE ( 'NONE', #141, 7.400000000000000355 ) ;
#256 = ORGANIZATION ( 'UNSPECIFIED', 'UNSPECIFIED', '' ) ;
#257 = COORDINATED_UNIVERSAL_TIME_OFFSET ( 10, 0, .AHEAD. ) ;
#258 = DIRECTION ( 'NONE',  ( 0.000000000000000000, 0.000000000000000000, -1.000000000000000000 ) ) ;
#259 = CARTESIAN_POINT ( 'NONE',  ( 0.000000000000000000, 1.000000000000000000, -4.049999999999999822 ) ) ;
#260 = APPLICATION_CONTEXT ( 'configuration controlled 3d designs of mechanical parts and assemblies' ) ;
#261 = APPROVAL_ROLE ( '' ) ;
#262 = EDGE_CURVE ( 'NONE', #40, #47, #225, .T. ) ;
#263 =( LENGTH_UNIT ( ) NAMED_UNIT ( * ) SI_UNIT ( .MILLI., .METRE. ) );
#264 = CALENDAR_DATE ( 2025, 17, 8 ) ;
#265 = CIRCLE ( 'NONE', #39, 4.049999999999999822 ) ;
#266 = EDGE_CURVE ( 'NONE', #307, #23, #265, .T. ) ;
#267 = DIRECTION ( 'NONE',  ( 0.000000000000000000, 1.000000000000000000, 0.000000000000000000 ) ) ;
#268 = DIRECTION ( 'NONE',  ( -0.000000000000000000, -1.000000000000000000, -0.000000000000000000 ) ) ;
#269 = CARTESIAN_POINT ( 'NONE',  ( -1.108894674999346464, -1.000000000000000222, 7.400000000000000355 ) ) ;
#270 = DIRECTION ( 'NONE',  ( 0.000000000000000000, 0.000000000000000000, 1.000000000000000000 ) ) ;
#271 = PLANE ( 'NONE',  #9 ) ;
#272 = ORIENTED_EDGE ( 'NONE', *, *, #67, .T. ) ;
#273 = CARTESIAN_POINT ( 'NONE',  ( -0.3809542064669329542, 1.000000000000000000, 4.032043389222783603 ) ) ;
#274 = CARTESIAN_POINT ( 'NONE',  ( 1.108894674999346908, 0.9999999999999995559, 7.400000000000000355 ) ) ;
#275 = PLANE ( 'NONE',  #28 ) ;
#276 = LOCAL_TIME ( 15, 22, 45.00000000000000000, #206 ) ;
#277 = CARTESIAN_POINT ( 'NONE',  ( 0.000000000000000000, -1.000000000000000000, 0.000000000000000000 ) ) ;
#278 = COORDINATED_UNIVERSAL_TIME_OFFSET ( 10, 0, .AHEAD. ) ;
#279 = CC_DESIGN_PERSON_AND_ORGANIZATION_ASSIGNMENT ( #252, #229, ( #125 ) ) ;
#280 = LOCAL_TIME ( 15, 22, 45.00000000000000000, #257 ) ;
#281 = PERSON_AND_ORGANIZATION ( #120, #256 ) ;
#282 = APPROVAL_STATUS ( 'not_yet_approved' ) ;
#283 = DIRECTION ( 'NONE',  ( -0.000000000000000000, -1.000000000000000000, -0.000000000000000000 ) ) ;
#284 = CYLINDRICAL_SURFACE ( 'NONE', #115, 7.400000000000000355 ) ;
#285 = DIRECTION ( 'NONE',  ( 0.000000000000000000, 1.000000000000000000, 0.000000000000000000 ) ) ;
#286 = LOCAL_TIME ( 15, 22, 45.00000000000000000, #219 ) ;
#287 = APPLICATION_CONTEXT ( 'configuration controlled 3d designs of mechanical parts and assemblies' ) ;
#288 = PLANE ( 'NONE',  #142 ) ;
#289 = DIRECTION ( 'NONE',  ( 0.000000000000000000, 0.000000000000000000, -1.000000000000000000 ) ) ;
#290 = DIRECTION ( 'NONE',  ( 0.3420201433256723211, 0.9396926207859069846, 0.000000000000000000 ) ) ;
#291 = VECTOR ( 'NONE', #119, 1000.000000000000000 ) ;
#292 = ADVANCED_FACE ( 'NONE', ( #36 ), #128, .F. ) ;
#293 = DIRECTION ( 'NONE',  ( 0.000000000000000000, 0.000000000000000000, -1.000000000000000000 ) ) ;
#294 = CC_DESIGN_SECURITY_CLASSIFICATION ( #125, ( #134 ) ) ;
#295 = CC_DESIGN_DATE_AND_TIME_ASSIGNMENT ( #106, #203, ( #125 ) ) ;
#296 = CALENDAR_DATE ( 2025, 17, 8 ) ;
#297 = AXIS2_PLACEMENT_3D ( 'NONE', #301, #96, #270 ) ;
#298 = ORIENTED_EDGE ( 'NONE', *, *, #170, .F. ) ;
#299 = EDGE_CURVE ( 'NONE', #189, #109, #34, .T. ) ;
#300 = PERSON_AND_ORGANIZATION ( #120, #256 ) ;
#301 = CARTESIAN_POINT ( 'NONE',  ( 0.000000000000000000, 1.000000000000000000, 0.000000000000000000 ) ) ;
#302 = EDGE_LOOP ( 'NONE', ( #238, #303, #7, #162, #13, #233 ) ) ;
#303 = ORIENTED_EDGE ( 'NONE', *, *, #127, .T. ) ;
#304 = AXIS2_PLACEMENT_3D ( 'NONE', #113, #267, #211 ) ;
#305 = APPROVAL_STATUS ( 'not_yet_approved' ) ;
#306 = EDGE_CURVE ( 'NONE', #47, #307, #244, .T. ) ;
#307 = VERTEX_POINT ( 'NONE', #259 ) ;
#308 = DIRECTION ( 'NONE',  ( -0.3420201433256728207, -0.9396926207859068736, 0.000000000000000000 ) ) ;
#309 = ORIENTED_EDGE ( 'NONE', *, *, #127, .F. ) ;
#310 = VECTOR ( 'NONE', #18, 1000.000000000000000 ) ;
#311 = APPROVAL ( #282, 'UNSPECIFIED' ) ;
#312 = CARTESIAN_POINT ( 'NONE',  ( -0.8675630431562878497, -0.3369467909110688275, 7.353020683875949537 ) ) ;
#313 = ADVANCED_BREP_SHAPE_REPRESENTATION ( 'M8_REV_', ( #59, #173 ), #103 ) ;
#314 = CC_DESIGN_PERSON_AND_ORGANIZATION_ASSIGNMENT ( #176, #149, ( #123 ) ) ;
#315 = AXIS2_PLACEMENT_3D ( 'NONE', #191, #285, #241 ) ;
ENDSEC;
END-ISO-10303-21;
