ISO-10303-21;
HEADER;
FILE_DESCRIPTION (( 'STEP AP203' ),
    '1' );
FILE_NAME ('MDU-022_REV_.step',
    '2025-08-17T04:46:48',
    ( '' ),
    ( '' ),
    'SwSTEP 2.0',
    'SolidWorks 2024',
    '' );
FILE_SCHEMA (( 'CONFIG_CONTROL_DESIGN' ));
ENDSEC;

DATA;
#1 = DIRECTION ( 'NONE',  ( -0.000000000000000000, -0.000000000000000000, 1.000000000000000000 ) ) ;
#2 = CALENDAR_DATE ( 2025, 17, 8 ) ;
#3 = CARTESIAN_POINT ( 'NONE',  ( -1155.000000000000227, -6.000000000000000000, 520.4999999999998863 ) ) ;
#4 = CC_DESIGN_APPROVAL ( #133, ( #76 ) ) ;
#5 = APPROVAL_DATE_TIME ( #246, #7 ) ;
#6 = CARTESIAN_POINT ( 'NONE',  ( -1155.000000000000227, 6.000000000000000000, -520.5000000000001137 ) ) ;
#7 = APPROVAL ( #112, 'UNSPECIFIED' ) ;
#8 = LOCAL_TIME ( 14, 46, 48.00000000000000000, #253 ) ;
#9 = VERTEX_POINT ( 'NONE', #170 ) ;
#10 = CARTESIAN_POINT ( 'NONE',  ( 0.000000000000000000, 0.000000000000000000, 0.000000000000000000 ) ) ;
#11 = ADVANCED_FACE ( 'NONE', ( #122 ), #195, .F. ) ;
#12 = APPROVAL_DATE_TIME ( #41, #332 ) ;
#13 = DIRECTION ( 'NONE',  ( 0.000000000000000000, 0.000000000000000000, 1.000000000000000000 ) ) ;
#14 = PERSON_AND_ORGANIZATION ( #273, #121 ) ;
#15 = APPROVAL_STATUS ( 'not_yet_approved' ) ;
#16 = CARTESIAN_POINT ( 'NONE',  ( -1155.000000000000227, 6.000000000000000000, 520.4999999999998863 ) ) ;
#17 = APPROVAL ( #314, 'UNKNOWN' ) ;
#18 = DIRECTION ( 'NONE',  ( -0.000000000000000000, 1.000000000000000000, -0.000000000000000000 ) ) ;
#19 = LOCAL_TIME ( 14, 46, 48.00000000000000000, #30 ) ;
#20 = PERSON_AND_ORGANIZATION ( #156, #263 ) ;
#21 = DATE_AND_TIME ( #330, #285 ) ;
#22 = DIRECTION ( 'NONE',  ( 0.000000000000000000, 0.000000000000000000, -1.000000000000000000 ) ) ;
#23 = PERSON_AND_ORGANIZATION_ROLE ( 'creator' ) ;
#24 = ADVANCED_FACE ( 'NONE', ( #299 ), #25, .T. ) ;
#25 = PLANE ( 'NONE',  #151 ) ;
#26 = VECTOR ( 'NONE', #1, 1000.000000000000000 ) ;
#27 = ORIENTED_EDGE ( 'NONE', *, *, #37, .T. ) ;
#28 = CC_DESIGN_DATE_AND_TIME_ASSIGNMENT ( #214, #279, ( #228 ) ) ;
#29 = APPROVAL_ROLE ( '' ) ;
#30 = COORDINATED_UNIVERSAL_TIME_OFFSET ( 10, 0, .AHEAD. ) ;
#31 = DIRECTION ( 'NONE',  ( 0.000000000000000000, 0.000000000000000000, -1.000000000000000000 ) ) ;
#32 = ORIENTED_EDGE ( 'NONE', *, *, #62, .T. ) ;
#33 = VECTOR ( 'NONE', #259, 1000.000000000000000 ) ;
#34 = DATE_AND_TIME ( #266, #269 ) ;
#35 = LOCAL_TIME ( 14, 46, 48.00000000000000000, #241 ) ;
#36 = PERSON_AND_ORGANIZATION_ROLE ( 'creator' ) ;
#37 = EDGE_CURVE ( 'NONE', #334, #138, #236, .T. ) ;
#38 = ORIENTED_EDGE ( 'NONE', *, *, #96, .T. ) ;
#39 = LOCAL_TIME ( 14, 46, 48.00000000000000000, #72 ) ;
#40 = CALENDAR_DATE ( 2025, 17, 8 ) ;
#41 = DATE_AND_TIME ( #169, #8 ) ;
#42 = APPROVAL_DATE_TIME ( #90, #267 ) ;
#43 = CC_DESIGN_PERSON_AND_ORGANIZATION_ASSIGNMENT ( #64, #36, ( #217 ) ) ;
#44 = AXIS2_PLACEMENT_3D ( 'NONE', #186, #305, #55 ) ;
#45 = CARTESIAN_POINT ( 'NONE',  ( 1154.999999999999773, 6.000000000000000000, -520.5000000000001137 ) ) ;
#46 = DATE_TIME_ROLE ( 'creation_date' ) ;
#47 = PERSON_AND_ORGANIZATION ( #273, #121 ) ;
#48 = DIRECTION ( 'NONE',  ( 0.000000000000000000, 0.000000000000000000, -1.000000000000000000 ) ) ;
#49 = PERSON_AND_ORGANIZATION ( #273, #121 ) ;
#50 = DIRECTION ( 'NONE',  ( -0.000000000000000000, 0.000000000000000000, 1.000000000000000000 ) ) ;
#51 = LOCAL_TIME ( 14, 46, 48.00000000000000000, #327 ) ;
#52 = EDGE_CURVE ( 'NONE', #93, #306, #324, .T. ) ;
#53 = PERSON_AND_ORGANIZATION ( #273, #121 ) ;
#54 = COORDINATED_UNIVERSAL_TIME_OFFSET ( 10, 0, .AHEAD. ) ;
#55 = DIRECTION ( 'NONE',  ( 0.000000000000000000, -0.000000000000000000, -1.000000000000000000 ) ) ;
#56 = ORIENTED_EDGE ( 'NONE', *, *, #62, .F. ) ;
#57 = AXIS2_PLACEMENT_3D ( 'NONE', #224, #343, #254 ) ;
#58 = ORIENTED_EDGE ( 'NONE', *, *, #290, .F. ) ;
#59 = PRODUCT_RELATED_PRODUCT_CATEGORY ( 'detail', '', ( #247 ) ) ;
#60 = DIRECTION ( 'NONE',  ( -0.000000000000000000, 0.000000000000000000, 1.000000000000000000 ) ) ;
#61 = ORIENTED_EDGE ( 'NONE', *, *, #96, .F. ) ;
#62 = EDGE_CURVE ( 'NONE', #306, #210, #103, .T. ) ;
#63 = CLOSED_SHELL ( 'NONE', ( #309, #24, #160, #360, #208, #11 ) ) ;
#64 = PERSON_AND_ORGANIZATION ( #273, #121 ) ;
#65 = APPROVAL_ROLE ( '' ) ;
#66 = ORIENTED_EDGE ( 'NONE', *, *, #235, .T. ) ;
#67 = COORDINATED_UNIVERSAL_TIME_OFFSET ( 10, 0, .AHEAD. ) ;
#68 = AXIS2_PLACEMENT_3D ( 'NONE', #230, #234, #129 ) ;
#69 = CC_DESIGN_APPROVAL ( #17, ( #331 ) ) ;
#70 = EDGE_LOOP ( 'NONE', ( #312, #287, #146, #88 ) ) ;
#71 = CARTESIAN_POINT ( 'NONE',  ( 1154.999999999999773, 6.000000000000000000, 520.4999999999998863 ) ) ;
#72 = COORDINATED_UNIVERSAL_TIME_OFFSET ( 10, 0, .AHEAD. ) ;
#73 = CC_DESIGN_PERSON_AND_ORGANIZATION_ASSIGNMENT ( #14, #345, ( #128 ) ) ;
#74 = PERSON_AND_ORGANIZATION_ROLE ( 'design_owner' ) ;
#75 = CARTESIAN_POINT ( 'NONE',  ( 1154.999999999999773, -6.000000000000000000, -520.5000000000001137 ) ) ;
#76 = PRODUCT_DEFINITION_FORMATION_WITH_SPECIFIED_SOURCE ( 'ANY', '', #212, .NOT_KNOWN. ) ;
#77 = APPROVAL_ROLE ( '' ) ;
#78 = LOCAL_TIME ( 14, 46, 48.00000000000000000, #272 ) ;
#79 = CC_DESIGN_PERSON_AND_ORGANIZATION_ASSIGNMENT ( #102, #211, ( #76 ) ) ;
#80 = PERSON_AND_ORGANIZATION_ROLE ( 'classification_officer' ) ;
#81 = VERTEX_POINT ( 'NONE', #226 ) ;
#82 = APPROVAL_PERSON_ORGANIZATION ( #49, #357, #261 ) ;
#83 = ORIENTED_EDGE ( 'NONE', *, *, #317, .F. ) ;
#84 = CARTESIAN_POINT ( 'NONE',  ( -1155.000000000000227, -6.000000000000000000, 520.4999999999998863 ) ) ;
#85 = ORIENTED_EDGE ( 'NONE', *, *, #317, .T. ) ;
#86 = VECTOR ( 'NONE', #321, 1000.000000000000000 ) ;
#87 = CALENDAR_DATE ( 2025, 17, 8 ) ;
#88 = ORIENTED_EDGE ( 'NONE', *, *, #52, .F. ) ;
#89 =( LENGTH_UNIT ( ) NAMED_UNIT ( * ) SI_UNIT ( .MILLI., .METRE. ) );
#90 = DATE_AND_TIME ( #148, #222 ) ;
#91 = AXIS2_PLACEMENT_3D ( 'NONE', #233, #50, #355 ) ;
#92 = COORDINATED_UNIVERSAL_TIME_OFFSET ( 10, 0, .AHEAD. ) ;
#93 = VERTEX_POINT ( 'NONE', #204 ) ;
#94 = SHAPE_DEFINITION_REPRESENTATION ( #196, #111 ) ;
#95 = FACE_OUTER_BOUND ( 'NONE', #344, .T. ) ;
#96 = EDGE_CURVE ( 'NONE', #210, #138, #176, .T. ) ;
#97 = ITEM_DEFINED_TRANSFORMATION ( 'NONE', 'NONE', #57,  #342 ) ;
#98 = VECTOR ( 'NONE', #152, 1000.000000000000000 ) ;
#99 = CARTESIAN_POINT ( 'NONE',  ( -1155.000000000000227, 6.000000000000000000, 520.4999999999998863 ) ) ;
#100 = CC_DESIGN_SECURITY_CLASSIFICATION ( #228, ( #300 ) ) ;
#101 = PLANE ( 'NONE',  #225 ) ;
#102 = PERSON_AND_ORGANIZATION ( #273, #121 ) ;
#103 = LINE ( 'NONE', #99, #127 ) ;
#104 =( GEOMETRIC_REPRESENTATION_CONTEXT ( 3 ) GLOBAL_UNCERTAINTY_ASSIGNED_CONTEXT ( ( #182 ) ) GLOBAL_UNIT_ASSIGNED_CONTEXT ( ( #268, #105, #110 ) ) REPRESENTATION_CONTEXT ( 'NONE', 'WORKASPACE' ) );
#105 =( NAMED_UNIT ( * ) PLANE_ANGLE_UNIT ( ) SI_UNIT ( $, .RADIAN. ) );
#106 = DESIGN_CONTEXT ( 'detailed design', #149, 'design' ) ;
#107 = ORIENTED_EDGE ( 'NONE', *, *, #290, .T. ) ;
#108 = CONTEXT_DEPENDENT_SHAPE_REPRESENTATION ( #316, #340 ) ;
#109 = APPROVAL_DATE_TIME ( #140, #133 ) ;
#110 =( NAMED_UNIT ( * ) SI_UNIT ( $, .STERADIAN. ) SOLID_ANGLE_UNIT ( ) );
#111 = SHAPE_REPRESENTATION ( 'plywood', ( #342 ), #104 ) ;
#112 = APPROVAL_STATUS ( 'not_yet_approved' ) ;
#113 = VECTOR ( 'NONE', #304, 1000.000000000000000 ) ;
#114 = PERSON_AND_ORGANIZATION ( #273, #121 ) ;
#115 = APPROVAL_PERSON_ORGANIZATION ( #20, #17, #358 ) ;
#116 = LINE ( 'NONE', #270, #26 ) ;
#117 = ORIENTED_EDGE ( 'NONE', *, *, #37, .F. ) ;
#118 = PERSON_AND_ORGANIZATION ( #273, #121 ) ;
#119 = MANIFOLD_SOLID_BREP ( 'Cut-Extrude1', #63 ) ;
#120 = SHAPE_REPRESENTATION_RELATIONSHIP ( 'NONE' , 'NONE' ,  #111, #288 ) ;
#121 = ORGANIZATION ( 'UNSPECIFIED', 'UNSPECIFIED', '' ) ;
#122 = FACE_OUTER_BOUND ( 'NONE', #310, .T. ) ;
#123 = DIRECTION ( 'NONE',  ( 1.000000000000000000, 0.000000000000000000, 0.000000000000000000 ) ) ;
#124 = CC_DESIGN_APPROVAL ( #7, ( #300 ) ) ;
#125 = DIRECTION ( 'NONE',  ( 0.000000000000000000, -1.000000000000000000, 0.000000000000000000 ) ) ;
#126 = SECURITY_CLASSIFICATION_LEVEL ( 'unclassified' ) ;
#127 = VECTOR ( 'NONE', #181, 1000.000000000000000 ) ;
#128 = PRODUCT_DEFINITION ( 'UNKNOWN', '', #76, #177 ) ;
#129 = DIRECTION ( 'NONE',  ( 1.000000000000000000, 0.000000000000000000, 0.000000000000000000 ) ) ;
#130 = DIRECTION ( 'NONE',  ( 0.000000000000000000, -0.000000000000000000, -1.000000000000000000 ) ) ;
#131 = APPROVAL_DATE_TIME ( #21, #357 ) ;
#132 = APPROVAL_DATE_TIME ( #238, #17 ) ;
#133 = APPROVAL ( #352, 'UNSPECIFIED' ) ;
#134 = DIRECTION ( 'NONE',  ( -1.000000000000000000, -0.000000000000000000, -0.000000000000000000 ) ) ;
#135 = UNCERTAINTY_MEASURE_WITH_UNIT (LENGTH_MEASURE( 1.000000000000000082E-05 ), #89, 'distance_accuracy_value', 'NONE');
#136 = PLANE ( 'NONE',  #44 ) ;
#137 = EDGE_CURVE ( 'NONE', #9, #306, #174, .T. ) ;
#138 = VERTEX_POINT ( 'NONE', #45 ) ;
#139 = CALENDAR_DATE ( 2025, 17, 8 ) ;
#140 = DATE_AND_TIME ( #333, #39 ) ;
#141 = EDGE_LOOP ( 'NONE', ( #271, #58, #172, #283 ) ) ;
#142 = FACE_OUTER_BOUND ( 'NONE', #141, .T. ) ;
#143 = EDGE_LOOP ( 'NONE', ( #117, #165, #284, #83 ) ) ;
#144 = LOCAL_TIME ( 14, 46, 48.00000000000000000, #159 ) ;
#145 = CC_DESIGN_PERSON_AND_ORGANIZATION_ASSIGNMENT ( #207, #74, ( #247 ) ) ;
#146 = ORIENTED_EDGE ( 'NONE', *, *, #137, .T. ) ;
#147 = VECTOR ( 'NONE', #282, 1000.000000000000000 ) ;
#148 = CALENDAR_DATE ( 2025, 17, 8 ) ;
#149 = APPLICATION_CONTEXT ( 'configuration controlled 3d designs of mechanical parts and assemblies' ) ;
#150 = EDGE_CURVE ( 'NONE', #334, #277, #349, .T. ) ;
#151 = AXIS2_PLACEMENT_3D ( 'NONE', #257, #206, #353 ) ;
#152 = DIRECTION ( 'NONE',  ( -0.000000000000000000, 1.000000000000000000, -0.000000000000000000 ) ) ;
#153 = CARTESIAN_POINT ( 'NONE',  ( -1155.000000000000227, -6.000000000000000000, 520.4999999999998863 ) ) ;
#154 = APPROVAL_STATUS ( 'not_yet_approved' ) ;
#155 = FACE_OUTER_BOUND ( 'NONE', #143, .T. ) ;
#156 = PERSON ( 'NAUO-PER1', 'UNSPECIFIED', 'UNSPECIFIED', ('UNSPECIFIED'), ('UNSPECIFIED'), ('UNSPECIFIED') ) ;
#157 = APPLICATION_PROTOCOL_DEFINITION ( 'international standard', 'config_control_design', 1994, #163 ) ;
#158 = CARTESIAN_POINT ( 'NONE',  ( -1155.000000000000227, -6.000000000000000000, -520.5000000000001137 ) ) ;
#159 = COORDINATED_UNIVERSAL_TIME_OFFSET ( 10, 0, .AHEAD. ) ;
#160 = ADVANCED_FACE ( 'NONE', ( #95 ), #319, .T. ) ;
#161 = PERSON_AND_ORGANIZATION ( #273, #121 ) ;
#162 = VECTOR ( 'NONE', #31, 1000.000000000000000 ) ;
#163 = APPLICATION_CONTEXT ( 'configuration controlled 3d designs of mechanical parts and assemblies' ) ;
#164 = CC_DESIGN_PERSON_AND_ORGANIZATION_ASSIGNMENT ( #218, #166, ( #228 ) ) ;
#165 = ORIENTED_EDGE ( 'NONE', *, *, #150, .T. ) ;
#166 = PERSON_AND_ORGANIZATION_ROLE ( 'classification_officer' ) ;
#167 = COORDINATED_UNIVERSAL_TIME_OFFSET ( 10, 0, .AHEAD. ) ;
#168 = CC_DESIGN_APPROVAL ( #329, ( #217 ) ) ;
#169 = CALENDAR_DATE ( 2025, 17, 8 ) ;
#170 = CARTESIAN_POINT ( 'NONE',  ( -1155.000000000000227, -6.000000000000000000, 520.4999999999998863 ) ) ;
#171 = CC_DESIGN_SECURITY_CLASSIFICATION ( #331, ( #361 ) ) ;
#172 = ORIENTED_EDGE ( 'NONE', *, *, #278, .F. ) ;
#173 = DATE_AND_TIME ( #198, #354 ) ;
#174 = LINE ( 'NONE', #153, #260 ) ;
#175 =( GEOMETRIC_REPRESENTATION_CONTEXT ( 3 ) GLOBAL_UNCERTAINTY_ASSIGNED_CONTEXT ( ( #135 ) ) GLOBAL_UNIT_ASSIGNED_CONTEXT ( ( #89, #320, #255 ) ) REPRESENTATION_CONTEXT ( 'NONE', 'WORKASPACE' ) );
#176 = LINE ( 'NONE', #295, #249 ) ;
#177 = DESIGN_CONTEXT ( 'detailed design', #197, 'design' ) ;
#178 = DATE_AND_TIME ( #328, #51 ) ;
#179 = APPLICATION_PROTOCOL_DEFINITION ( 'international standard', 'config_control_design', 1994, #149 ) ;
#180 = APPROVAL_PERSON_ORGANIZATION ( #47, #332, #318 ) ;
#181 = DIRECTION ( 'NONE',  ( 1.000000000000000000, 0.000000000000000000, 0.000000000000000000 ) ) ;
#182 = UNCERTAINTY_MEASURE_WITH_UNIT (LENGTH_MEASURE( 1.000000000000000082E-05 ), #268, 'distance_accuracy_value', 'NONE');
#183 = CC_DESIGN_PERSON_AND_ORGANIZATION_ASSIGNMENT ( #297, #291, ( #212 ) ) ;
#184 = APPROVAL_PERSON_ORGANIZATION ( #118, #7, #29 ) ;
#185 = CARTESIAN_POINT ( 'NONE',  ( -1155.000000000000227, -6.000000000000000000, -520.5000000000001137 ) ) ;
#186 = CARTESIAN_POINT ( 'NONE',  ( 0.000000000000000000, -6.000000000000000000, 0.000000000000000000 ) ) ;
#187 = CC_DESIGN_PERSON_AND_ORGANIZATION_ASSIGNMENT ( #161, #23, ( #76 ) ) ;
#188 = APPROVAL_PERSON_ORGANIZATION ( #322, #133, #201 ) ;
#189 = PERSON_AND_ORGANIZATION ( #273, #121 ) ;
#190 = DIRECTION ( 'NONE',  ( -1.000000000000000000, 0.000000000000000000, -0.000000000000000000 ) ) ;
#191 = EDGE_LOOP ( 'NONE', ( #219, #107, #27, #61 ) ) ;
#192 = APPROVAL_STATUS ( 'not_yet_approved' ) ;
#193 = VECTOR ( 'NONE', #350, 1000.000000000000000 ) ;
#194 = PERSON_AND_ORGANIZATION_ROLE ( 'design_supplier' ) ;
#195 = PLANE ( 'NONE',  #311 ) ;
#196 = PRODUCT_DEFINITION_SHAPE ( 'NONE', 'NONE',  #217 ) ;
#197 = APPLICATION_CONTEXT ( 'configuration controlled 3d designs of mechanical parts and assemblies' ) ;
#198 = CALENDAR_DATE ( 2025, 17, 8 ) ;
#199 = CARTESIAN_POINT ( 'NONE',  ( -1155.000000000000227, -6.000000000000000000, -520.5000000000001137 ) ) ;
#200 = CC_DESIGN_PERSON_AND_ORGANIZATION_ASSIGNMENT ( #114, #313, ( #300 ) ) ;
#201 = APPROVAL_ROLE ( '' ) ;
#202 = MECHANICAL_CONTEXT ( 'NONE', #221, 'mechanical' ) ;
#203 = CC_DESIGN_APPROVAL ( #332, ( #128 ) ) ;
#204 = CARTESIAN_POINT ( 'NONE',  ( -1155.000000000000227, 6.000000000000000000, -520.5000000000001137 ) ) ;
#205 = CC_DESIGN_APPROVAL ( #267, ( #228 ) ) ;
#206 = DIRECTION ( 'NONE',  ( 1.000000000000000000, 0.000000000000000000, 0.000000000000000000 ) ) ;
#207 = PERSON_AND_ORGANIZATION ( #273, #121 ) ;
#208 = ADVANCED_FACE ( 'NONE', ( #155 ), #101, .T. ) ;
#209 = DATE_TIME_ROLE ( 'classification_date' ) ;
#210 = VERTEX_POINT ( 'NONE', #71 ) ;
#211 = PERSON_AND_ORGANIZATION_ROLE ( 'design_supplier' ) ;
#212 = PRODUCT ( 'MDU-022_REV_', 'MDU-022_REV_', '', ( #202 ) ) ;
#213 = CARTESIAN_POINT ( 'NONE',  ( 1154.999999999999773, -6.000000000000000000, 520.4999999999998863 ) ) ;
#214 = DATE_AND_TIME ( #2, #78 ) ;
#215 = APPROVAL_PERSON_ORGANIZATION ( #301, #329, #77 ) ;
#216 = FACE_OUTER_BOUND ( 'NONE', #70, .T. ) ;
#217 = PRODUCT_DEFINITION ( 'UNKNOWN', '', #300, #106 ) ;
#218 = PERSON_AND_ORGANIZATION ( #273, #121 ) ;
#219 = ORIENTED_EDGE ( 'NONE', *, *, #235, .F. ) ;
#220 = SECURITY_CLASSIFICATION_LEVEL ( 'unclassified' ) ;
#221 = APPLICATION_CONTEXT ( 'configuration controlled 3d designs of mechanical parts and assemblies' ) ;
#222 = LOCAL_TIME ( 14, 46, 48.00000000000000000, #167 ) ;
#223 = CARTESIAN_POINT ( 'NONE',  ( 0.000000000000000000, 6.000000000000000000, 0.000000000000000000 ) ) ;
#224 = CARTESIAN_POINT ( 'NONE',  ( 0.000000000000000000, 6.000000000000000000, 0.000000000000000000 ) ) ;
#225 = AXIS2_PLACEMENT_3D ( 'NONE', #158, #22, #265 ) ;
#226 = CARTESIAN_POINT ( 'NONE',  ( 1154.999999999999773, -6.000000000000000000, 520.4999999999998863 ) ) ;
#227 = CC_DESIGN_DATE_AND_TIME_ASSIGNMENT ( #252, #209, ( #331 ) ) ;
#228 = SECURITY_CLASSIFICATION ( '', '', #220 ) ;
#229 = CARTESIAN_POINT ( 'NONE',  ( 1154.999999999999773, -6.000000000000000000, 520.4999999999998863 ) ) ;
#230 = CARTESIAN_POINT ( 'NONE',  ( 0.000000000000000000, 0.000000000000000000, 0.000000000000000000 ) ) ;
#231 = SECURITY_CLASSIFICATION ( '', '', #258 ) ;
#232 = CC_DESIGN_DATE_AND_TIME_ASSIGNMENT ( #173, #46, ( #128 ) ) ;
#233 = CARTESIAN_POINT ( 'NONE',  ( -1155.000000000000227, -6.000000000000000000, 520.4999999999998863 ) ) ;
#234 = DIRECTION ( 'NONE',  ( 0.000000000000000000, 0.000000000000000000, 1.000000000000000000 ) ) ;
#235 = EDGE_CURVE ( 'NONE', #81, #210, #292, .T. ) ;
#236 = LINE ( 'NONE', #75, #98 ) ;
#237 = VECTOR ( 'NONE', #134, 1000.000000000000000 ) ;
#238 = DATE_AND_TIME ( #139, #144 ) ;
#239 = CARTESIAN_POINT ( 'NONE',  ( 1154.999999999999773, -6.000000000000000000, -520.5000000000001137 ) ) ;
#240 = ORIENTED_EDGE ( 'NONE', *, *, #52, .T. ) ;
#241 = COORDINATED_UNIVERSAL_TIME_OFFSET ( 10, 0, .AHEAD. ) ;
#242 = CARTESIAN_POINT ( 'NONE',  ( -1155.000000000000227, -6.000000000000000000, -520.5000000000001137 ) ) ;
#243 = LINE ( 'NONE', #6, #237 ) ;
#244 = PERSON_AND_ORGANIZATION ( #273, #121 ) ;
#245 = EDGE_CURVE ( 'NONE', #277, #93, #308, .T. ) ;
#246 = DATE_AND_TIME ( #87, #35 ) ;
#247 = PRODUCT ( 'plywood', 'plywood', '', ( #359 ) ) ;
#248 = DATE_AND_TIME ( #339, #19 ) ;
#249 = VECTOR ( 'NONE', #48, 1000.000000000000000 ) ;
#250 = ORIENTED_EDGE ( 'NONE', *, *, #137, .F. ) ;
#251 = PRODUCT_DEFINITION_SHAPE ( 'NONE', 'NONE',  #128 ) ;
#252 = DATE_AND_TIME ( #40, #262 ) ;
#253 = COORDINATED_UNIVERSAL_TIME_OFFSET ( 10, 0, .AHEAD. ) ;
#254 = DIRECTION ( 'NONE',  ( 1.000000000000000000, 0.000000000000000000, 0.000000000000000000 ) ) ;
#255 =( NAMED_UNIT ( * ) SI_UNIT ( $, .STERADIAN. ) SOLID_ANGLE_UNIT ( ) );
#256 = APPROVAL_PERSON_ORGANIZATION ( #244, #267, #65 ) ;
#257 = CARTESIAN_POINT ( 'NONE',  ( 1154.999999999999773, -6.000000000000000000, 520.4999999999998863 ) ) ;
#258 = SECURITY_CLASSIFICATION_LEVEL ( 'unclassified' ) ;
#259 = DIRECTION ( 'NONE',  ( -1.000000000000000000, -0.000000000000000000, -0.000000000000000000 ) ) ;
#260 = VECTOR ( 'NONE', #18, 1000.000000000000000 ) ;
#261 = APPROVAL_ROLE ( '' ) ;
#262 = LOCAL_TIME ( 14, 46, 48.00000000000000000, #67 ) ;
#263 = ORGANIZATION ( 'NAUO-ORG1', 'UNSPECIFIED', 'UNSPECIFIED' ) ;
#264 = APPROVAL_STATUS ( 'not_yet_approved' ) ;
#265 = DIRECTION ( 'NONE',  ( -1.000000000000000000, 0.000000000000000000, -0.000000000000000000 ) ) ;
#266 = CALENDAR_DATE ( 2025, 17, 8 ) ;
#267 = APPROVAL ( #192, 'UNSPECIFIED' ) ;
#268 =( LENGTH_UNIT ( ) NAMED_UNIT ( * ) SI_UNIT ( .MILLI., .METRE. ) );
#269 = LOCAL_TIME ( 14, 46, 48.00000000000000000, #54 ) ;
#270 = CARTESIAN_POINT ( 'NONE',  ( -1155.000000000000227, -6.000000000000000000, 520.4999999999998863 ) ) ;
#271 = ORIENTED_EDGE ( 'NONE', *, *, #150, .F. ) ;
#272 = COORDINATED_UNIVERSAL_TIME_OFFSET ( 10, 0, .AHEAD. ) ;
#273 = PERSON ( 'UNSPECIFIED', 'UNSPECIFIED', 'UNSPECIFIED', ('UNSPECIFIED'), ('UNSPECIFIED'), ('UNSPECIFIED') ) ;
#274 = CC_DESIGN_PERSON_AND_ORGANIZATION_ASSIGNMENT ( #189, #194, ( #300 ) ) ;
#275 = APPROVAL_DATE_TIME ( #34, #329 ) ;
#276 = LINE ( 'NONE', #213, #162 ) ;
#277 = VERTEX_POINT ( 'NONE', #185 ) ;
#278 = EDGE_CURVE ( 'NONE', #9, #81, #336, .T. ) ;
#279 = DATE_TIME_ROLE ( 'classification_date' ) ;
#280 = CC_DESIGN_APPROVAL ( #357, ( #231 ) ) ;
#281 = CARTESIAN_POINT ( 'NONE',  ( -1155.000000000000227, 6.000000000000000000, 520.4999999999998863 ) ) ;
#282 = DIRECTION ( 'NONE',  ( -0.000000000000000000, 1.000000000000000000, -0.000000000000000000 ) ) ;
#283 = ORIENTED_EDGE ( 'NONE', *, *, #346, .F. ) ;
#284 = ORIENTED_EDGE ( 'NONE', *, *, #245, .T. ) ;
#285 = LOCAL_TIME ( 14, 46, 48.00000000000000000, #303 ) ;
#286 = CC_DESIGN_PERSON_AND_ORGANIZATION_ASSIGNMENT ( #20, #326, ( #331 ) ) ;
#287 = ORIENTED_EDGE ( 'NONE', *, *, #346, .T. ) ;
#288 = ADVANCED_BREP_SHAPE_REPRESENTATION ( '', ( #119, #342 ), #104 ) ;
#289 = DIRECTION ( 'NONE',  ( 1.000000000000000000, 0.000000000000000000, 0.000000000000000000 ) ) ;
#290 = EDGE_CURVE ( 'NONE', #81, #334, #276, .T. ) ;
#291 = PERSON_AND_ORGANIZATION_ROLE ( 'design_owner' ) ;
#292 = LINE ( 'NONE', #229, #193 ) ;
#293 = AXIS2_PLACEMENT_3D ( 'NONE', #10, #13, #289 ) ;
#294 = DIRECTION ( 'NONE',  ( 0.000000000000000000, 0.000000000000000000, 1.000000000000000000 ) ) ;
#295 = CARTESIAN_POINT ( 'NONE',  ( 1154.999999999999773, 6.000000000000000000, 520.4999999999998863 ) ) ;
#296 = CC_DESIGN_PERSON_AND_ORGANIZATION_ASSIGNMENT ( #53, #80, ( #231 ) ) ;
#297 = PERSON_AND_ORGANIZATION ( #273, #121 ) ;
#298 = DATE_TIME_ROLE ( 'classification_date' ) ;
#299 = FACE_OUTER_BOUND ( 'NONE', #191, .T. ) ;
#300 = PRODUCT_DEFINITION_FORMATION_WITH_SPECIFIED_SOURCE ( 'ANY', '', #247, .NOT_KNOWN. ) ;
#301 = PERSON_AND_ORGANIZATION ( #273, #121 ) ;
#302 = CC_DESIGN_DATE_AND_TIME_ASSIGNMENT ( #248, #337, ( #217 ) ) ;
#303 = COORDINATED_UNIVERSAL_TIME_OFFSET ( 10, 0, .AHEAD. ) ;
#304 = DIRECTION ( 'NONE',  ( 1.000000000000000000, 0.000000000000000000, 0.000000000000000000 ) ) ;
#305 = DIRECTION ( 'NONE',  ( 0.000000000000000000, -1.000000000000000000, 0.000000000000000000 ) ) ;
#306 = VERTEX_POINT ( 'NONE', #281 ) ;
#307 = AXIS2_PLACEMENT_3D ( 'NONE', #84, #190, #60 ) ;
#308 = LINE ( 'NONE', #242, #147 ) ;
#309 = ADVANCED_FACE ( 'NONE', ( #142 ), #136, .T. ) ;
#310 = EDGE_LOOP ( 'NONE', ( #38, #85, #240, #32 ) ) ;
#311 = AXIS2_PLACEMENT_3D ( 'NONE', #223, #125, #130 ) ;
#312 = ORIENTED_EDGE ( 'NONE', *, *, #245, .F. ) ;
#313 = PERSON_AND_ORGANIZATION_ROLE ( 'creator' ) ;
#314 = APPROVAL_STATUS ( 'not_yet_approved' ) ;
#315 = ORIENTED_EDGE ( 'NONE', *, *, #278, .T. ) ;
#316 =( REPRESENTATION_RELATIONSHIP ('NONE','NONE', #347, #111 ) REPRESENTATION_RELATIONSHIP_WITH_TRANSFORMATION ( #97 )SHAPE_REPRESENTATION_RELATIONSHIP( ) );
#317 = EDGE_CURVE ( 'NONE', #138, #93, #243, .T. ) ;
#318 = APPROVAL_ROLE ( '' ) ;
#319 = PLANE ( 'NONE',  #91 ) ;
#320 =( NAMED_UNIT ( * ) PLANE_ANGLE_UNIT ( ) SI_UNIT ( $, .RADIAN. ) );
#321 = DIRECTION ( 'NONE',  ( -0.000000000000000000, -0.000000000000000000, 1.000000000000000000 ) ) ;
#322 = PERSON_AND_ORGANIZATION ( #273, #121 ) ;
#323 = PRODUCT_RELATED_PRODUCT_CATEGORY ( 'detail', '', ( #212 ) ) ;
#324 = LINE ( 'NONE', #16, #86 ) ;
#325 = APPLICATION_PROTOCOL_DEFINITION ( 'international standard', 'config_control_design', 1994, #221 ) ;
#326 = PERSON_AND_ORGANIZATION_ROLE ( 'classification_officer' ) ;
#327 = COORDINATED_UNIVERSAL_TIME_OFFSET ( 10, 0, .AHEAD. ) ;
#328 = CALENDAR_DATE ( 2025, 17, 8 ) ;
#329 = APPROVAL ( #264, 'UNSPECIFIED' ) ;
#330 = CALENDAR_DATE ( 2025, 17, 8 ) ;
#331 = SECURITY_CLASSIFICATION ( '', '', #126 ) ;
#332 = APPROVAL ( #15, 'UNSPECIFIED' ) ;
#333 = CALENDAR_DATE ( 2025, 17, 8 ) ;
#334 = VERTEX_POINT ( 'NONE', #239 ) ;
#335 = CC_DESIGN_SECURITY_CLASSIFICATION ( #231, ( #76 ) ) ;
#336 = LINE ( 'NONE', #3, #113 ) ;
#337 = DATE_TIME_ROLE ( 'creation_date' ) ;
#338 = PLANE ( 'NONE',  #307 ) ;
#339 = CALENDAR_DATE ( 2025, 17, 8 ) ;
#340 = PRODUCT_DEFINITION_SHAPE ( 'NONE', 'NONE',  #361 ) ;
#341 = CARTESIAN_POINT ( 'NONE',  ( 0.000000000000000000, 0.000000000000000000, 0.000000000000000000 ) ) ;
#342 = AXIS2_PLACEMENT_3D ( 'NONE', #341, #294, #123 ) ;
#343 = DIRECTION ( 'NONE',  ( 0.000000000000000000, 0.000000000000000000, 1.000000000000000000 ) ) ;
#344 = EDGE_LOOP ( 'NONE', ( #250, #315, #66, #56 ) ) ;
#345 = PERSON_AND_ORGANIZATION_ROLE ( 'creator' ) ;
#346 = EDGE_CURVE ( 'NONE', #277, #9, #116, .T. ) ;
#347 = SHAPE_REPRESENTATION ( 'MDU-022_REV_', ( #68, #57 ), #175 ) ;
#348 = APPLICATION_PROTOCOL_DEFINITION ( 'international standard', 'config_control_design', 1994, #197 ) ;
#349 = LINE ( 'NONE', #199, #33 ) ;
#350 = DIRECTION ( 'NONE',  ( -0.000000000000000000, 1.000000000000000000, -0.000000000000000000 ) ) ;
#351 = CC_DESIGN_DATE_AND_TIME_ASSIGNMENT ( #178, #298, ( #231 ) ) ;
#352 = APPROVAL_STATUS ( 'not_yet_approved' ) ;
#353 = DIRECTION ( 'NONE',  ( 0.000000000000000000, 0.000000000000000000, -1.000000000000000000 ) ) ;
#354 = LOCAL_TIME ( 14, 46, 48.00000000000000000, #92 ) ;
#355 = DIRECTION ( 'NONE',  ( 1.000000000000000000, 0.000000000000000000, 0.000000000000000000 ) ) ;
#356 = SHAPE_DEFINITION_REPRESENTATION ( #251, #347 ) ;
#357 = APPROVAL ( #154, 'UNSPECIFIED' ) ;
#358 = APPROVAL_ROLE ( '' ) ;
#359 = MECHANICAL_CONTEXT ( 'NONE', #163, 'mechanical' ) ;
#360 = ADVANCED_FACE ( 'NONE', ( #216 ), #338, .T. ) ;
#361 = NEXT_ASSEMBLY_USAGE_OCCURRENCE ( 'NAUO1', ' ', ' ', #128, #217, $ ) ;
ENDSEC;
END-ISO-10303-21;
