ISO-10303-21;
HEADER;
FILE_DESCRIPTION (( 'STEP AP203' ),
    '1' );
FILE_NAME ('OEM-10-3000-316L_REV_.step',
    '2026-03-04T02:56:34',
    ( '' ),
    ( '' ),
    'SwSTEP 2.0',
    'SolidWorks 2025',
    '' );
FILE_SCHEMA (( 'CONFIG_CONTROL_DESIGN' ));
ENDSEC;

DATA;
#1 = DIRECTION ( 'NONE',  ( 0.000000000000000000, -3.330669073875472579E-16, 1.000000000000000000 ) ) ;
#2 = ORIENTED_EDGE ( 'NONE', *, *, #64, .F. ) ;
#3 = APPROVAL ( #144, 'UNSPECIFIED' ) ;
#4 = AXIS2_PLACEMENT_3D ( 'NONE', #201, #82, #42 ) ;
#5 = CARTESIAN_POINT ( 'NONE',  ( -7.130925361137668315E-17, -2.263727079723198509E-15, 10.49999999999998934 ) ) ;
#6 = DIRECTION ( 'NONE',  ( 0.7071067811865441310, -1.496165045651688168E-16, 0.7071067811865507924 ) ) ;
#7 = DIRECTION ( 'NONE',  ( -9.856383386231867455E-18, 3.330669073875473073E-16, -1.000000000000000000 ) ) ;
#8 = LINE ( 'NONE', #281, #21 ) ;
#9 = AXIS2_PLACEMENT_3D ( 'NONE', #286, #77, #74 ) ;
#10 = DIRECTION ( 'NONE',  ( 1.000000000000000000, 0.000000000000000000, 0.000000000000000000 ) ) ;
#11 = DIRECTION ( 'NONE',  ( 1.000000000000000000, -9.874624381048961600E-19, -6.791357486797770911E-18 ) ) ;
#12 = EDGE_LOOP ( 'NONE', ( #123, #102 ) ) ;
#13 =( NAMED_UNIT ( * ) PLANE_ANGLE_UNIT ( ) SI_UNIT ( $, .RADIAN. ) );
#14 = VERTEX_POINT ( 'NONE', #270 ) ;
#15 = AXIS2_PLACEMENT_3D ( 'NONE', #249, #224, #43 ) ;
#16 = APPROVAL_PERSON_ORGANIZATION ( #195, #81, #71 ) ;
#17 = PERSON_AND_ORGANIZATION ( #164, #150 ) ;
#18 = VERTEX_POINT ( 'NONE', #148 ) ;
#19 = ORIENTED_EDGE ( 'NONE', *, *, #84, .F. ) ;
#20 = EDGE_CURVE ( 'NONE', #243, #266, #131, .T. ) ;
#21 = VECTOR ( 'NONE', #6, 1000.000000000000114 ) ;
#22 = DIRECTION ( 'NONE',  ( -6.791357486797770911E-18, 3.330669073875472579E-16, -1.000000000000000000 ) ) ;
#23 = CARTESIAN_POINT ( 'NONE',  ( 0.5000000000000004441, 0.000000000000000000, 0.000000000000000000 ) ) ;
#24 = SHAPE_DEFINITION_REPRESENTATION ( #226, #89 ) ;
#25 = DIRECTION ( 'NONE',  ( 0.000000000000000000, -3.330669073875473073E-16, 1.000000000000000000 ) ) ;
#26 = CARTESIAN_POINT ( 'NONE',  ( 19.00000000000000000, 0.000000000000000000, 0.000000000000000000 ) ) ;
#27 = DIRECTION ( 'NONE',  ( -6.791357486797769370E-18, 3.330669073875472086E-16, -1.000000000000000000 ) ) ;
#28 = EDGE_CURVE ( 'NONE', #266, #243, #114, .T. ) ;
#29 = LINE ( 'NONE', #155, #45 ) ;
#30 = DATE_AND_TIME ( #214, #269 ) ;
#31 = CARTESIAN_POINT ( 'NONE',  ( 0.000000000000000000, 0.000000000000000000, 0.000000000000000000 ) ) ;
#32 = PERSON_AND_ORGANIZATION_ROLE ( 'design_supplier' ) ;
#33 = EDGE_LOOP ( 'NONE', ( #212, #100, #205, #260 ) ) ;
#34 = APPROVAL ( #267, 'UNSPECIFIED' ) ;
#35 = CALENDAR_DATE ( 2026, 4, 3 ) ;
#36 = DIRECTION ( 'NONE',  ( 1.000000000000000000, -9.874624381049007822E-19, 6.791357486797786318E-18 ) ) ;
#37 = COORDINATED_UNIVERSAL_TIME_OFFSET ( 10, 0, .AHEAD. ) ;
#38 = CYLINDRICAL_SURFACE ( 'NONE', #15, 10.99999999999998934 ) ;
#39 = APPROVAL_PERSON_ORGANIZATION ( #158, #34, #50 ) ;
#40 = DATE_TIME_ROLE ( 'creation_date' ) ;
#41 = ORIENTED_EDGE ( 'NONE', *, *, #203, .F. ) ;
#42 = DIRECTION ( 'NONE',  ( 0.000000000000000000, 3.330669073875473073E-16, -1.000000000000000000 ) ) ;
#43 = DIRECTION ( 'NONE',  ( 0.000000000000000000, -3.330669073875473073E-16, 1.000000000000000000 ) ) ;
#44 = FACE_OUTER_BOUND ( 'NONE', #12, .T. ) ;
#45 = VECTOR ( 'NONE', #252, 1000.000000000000000 ) ;
#46 = EDGE_CURVE ( 'NONE', #18, #266, #58, .T. ) ;
#47 = AXIS2_PLACEMENT_3D ( 'NONE', #109, #206, #263 ) ;
#48 = CYLINDRICAL_SURFACE ( 'NONE', #83, 7.499999999999992895 ) ;
#49 = EDGE_LOOP ( 'NONE', ( #258, #290, #193, #268 ) ) ;
#50 = APPROVAL_ROLE ( '' ) ;
#51 = AXIS2_PLACEMENT_3D ( 'NONE', #113, #230, #27 ) ;
#52 = VERTEX_POINT ( 'NONE', #99 ) ;
#53 = ADVANCED_FACE ( 'NONE', ( #147, #145 ), #116, .F. ) ;
#54 = ORIENTED_EDGE ( 'NONE', *, *, #257, .T. ) ;
#55 = DATE_AND_TIME ( #216, #251 ) ;
#56 = CARTESIAN_POINT ( 'NONE',  ( 19.00000000000000000, -2.498001805406602216E-15, 7.499999999999992895 ) ) ;
#57 = APPLICATION_PROTOCOL_DEFINITION ( 'international standard', 'config_control_design', 1994, #228 ) ;
#58 = LINE ( 'NONE', #56, #274 ) ;
#59 = EDGE_LOOP ( 'NONE', ( #166, #97, #159, #54 ) ) ;
#60 = DIRECTION ( 'NONE',  ( 1.000000000000000000, -9.874624381049007822E-19, 6.791357486797786318E-18 ) ) ;
#61 = ADVANCED_FACE ( 'NONE', ( #76 ), #38, .T. ) ;
#62 = DIRECTION ( 'NONE',  ( 1.000000000000000000, -9.874624381049007822E-19, 6.791357486797786318E-18 ) ) ;
#63 = DIRECTION ( 'NONE',  ( -1.000000000000000000, 9.874624381049007822E-19, -6.791357486797786318E-18 ) ) ;
#64 = EDGE_CURVE ( 'NONE', #87, #78, #199, .T. ) ;
#65 = DIRECTION ( 'NONE',  ( -6.791357486797769370E-18, 3.330669073875472086E-16, -1.000000000000000000 ) ) ;
#66 = DIRECTION ( 'NONE',  ( 1.000000000000000000, -9.874624381049007822E-19, 6.791357486797786318E-18 ) ) ;
#67 = EDGE_CURVE ( 'NONE', #52, #78, #295, .T. ) ;
#68 = DIRECTION ( 'NONE',  ( -1.000000000000000000, 9.874624381049007822E-19, -6.791357486797786318E-18 ) ) ;
#69 = CIRCLE ( 'NONE', #4, 10.99999999999998934 ) ;
#70 = CARTESIAN_POINT ( 'NONE',  ( -5.093518115098339970E-17, -2.488620912244607890E-15, 7.500000000000000000 ) ) ;
#71 = APPROVAL_ROLE ( '' ) ;
#72 = DIRECTION ( 'NONE',  ( 0.000000000000000000, 0.000000000000000000, 1.000000000000000000 ) ) ;
#73 = VERTEX_POINT ( 'NONE', #127 ) ;
#74 = DIRECTION ( 'NONE',  ( -6.791357486797771681E-18, 3.330669073875472579E-16, -1.000000000000000000 ) ) ;
#75 = CC_DESIGN_APPROVAL ( #34, ( #299 ) ) ;
#76 = FACE_OUTER_BOUND ( 'NONE', #59, .T. ) ;
#77 = DIRECTION ( 'NONE',  ( 1.000000000000000000, -9.874624381049007822E-19, 6.791357486797786318E-18 ) ) ;
#78 = VERTEX_POINT ( 'NONE', #174 ) ;
#79 = CIRCLE ( 'NONE', #51, 10.49999999999998224 ) ;
#80 = CARTESIAN_POINT ( 'NONE',  ( 0.5000000000000003331, 3.663735981263016583E-15, -10.99999999999998934 ) ) ;
#81 = APPROVAL ( #115, 'UNSPECIFIED' ) ;
#82 = DIRECTION ( 'NONE',  ( 1.000000000000000000, -9.874624381049007822E-19, 6.791357486797786318E-18 ) ) ;
#83 = AXIS2_PLACEMENT_3D ( 'NONE', #254, #112, #152 ) ;
#84 = EDGE_CURVE ( 'NONE', #143, #18, #296, .T. ) ;
#85 = DIRECTION ( 'NONE',  ( -1.000000000000000000, 9.874624381049007822E-19, -6.791357486797786318E-18 ) ) ;
#86 = CARTESIAN_POINT ( 'NONE',  ( 5.093518115098340586E-17, 3.425867797929116069E-15, -7.500000000000000000 ) ) ;
#87 = VERTEX_POINT ( 'NONE', #245 ) ;
#88 = CIRCLE ( 'NONE', #261, 7.499999999999992895 ) ;
#89 = ADVANCED_BREP_SHAPE_REPRESENTATION ( 'OEM-10-3000-316L_REV_', ( #264, #179 ), #198 ) ;
#90 = CARTESIAN_POINT ( 'NONE',  ( 19.00000000000000000, 0.000000000000000000, 0.000000000000000000 ) ) ;
#91 = PRODUCT ( 'OEM-10-3000-316L_REV_', 'OEM-10-3000-316L_REV_', '', ( #259 ) ) ;
#92 = PRODUCT_RELATED_PRODUCT_CATEGORY ( 'detail', '', ( #91 ) ) ;
#93 = EDGE_CURVE ( 'NONE', #78, #73, #207, .T. ) ;
#94 = UNCERTAINTY_MEASURE_WITH_UNIT (LENGTH_MEASURE( 1.000000000000000082E-05 ), #138, 'distance_accuracy_value', 'NONE');
#95 = DIRECTION ( 'NONE',  ( -6.791357486797770911E-18, 3.330669073875472579E-16, -1.000000000000000000 ) ) ;
#96 = COORDINATED_UNIVERSAL_TIME_OFFSET ( 10, 0, .AHEAD. ) ;
#97 = ORIENTED_EDGE ( 'NONE', *, *, #106, .F. ) ;
#98 = CARTESIAN_POINT ( 'NONE',  ( 0.000000000000000000, 0.000000000000000000, 0.000000000000000000 ) ) ;
#99 = CARTESIAN_POINT ( 'NONE',  ( 19.00000000000000000, 5.019981487877578908E-15, -11.00000000000000000 ) ) ;
#100 = ORIENTED_EDGE ( 'NONE', *, *, #186, .T. ) ;
#101 = DATE_TIME_ROLE ( 'classification_date' ) ;
#102 = ORIENTED_EDGE ( 'NONE', *, *, #111, .T. ) ;
#103 = AXIS2_PLACEMENT_3D ( 'NONE', #126, #277, #65 ) ;
#104 = CARTESIAN_POINT ( 'NONE',  ( 19.00000000000000000, 0.000000000000000000, 0.000000000000000000 ) ) ;
#105 = DIRECTION ( 'NONE',  ( 1.000000000000000000, -9.874624381049007822E-19, 6.791357486797786318E-18 ) ) ;
#106 = EDGE_CURVE ( 'NONE', #14, #52, #69, .T. ) ;
#107 = VECTOR ( 'NONE', #63, 1000.000000000000000 ) ;
#108 = ORIENTED_EDGE ( 'NONE', *, *, #156, .F. ) ;
#109 = CARTESIAN_POINT ( 'NONE',  ( 0.5000000000000004441, 0.000000000000000000, 0.000000000000000000 ) ) ;
#110 = CLOSED_SHELL ( 'NONE', ( #172, #239, #177, #167, #53, #61, #232, #272 ) ) ;
#111 = EDGE_CURVE ( 'NONE', #52, #14, #168, .T. ) ;
#112 = DIRECTION ( 'NONE',  ( -1.000000000000000000, 9.874624381049007822E-19, -6.791357486797786318E-18 ) ) ;
#113 = CARTESIAN_POINT ( 'NONE',  ( 0.000000000000000000, 0.000000000000000000, 0.000000000000000000 ) ) ;
#114 = CIRCLE ( 'NONE', #9, 7.499999999999992895 ) ;
#115 = APPROVAL_STATUS ( 'not_yet_approved' ) ;
#116 = PLANE ( 'NONE',  #135 ) ;
#117 = CALENDAR_DATE ( 2026, 4, 3 ) ;
#118 = ORIENTED_EDGE ( 'NONE', *, *, #194, .F. ) ;
#119 = SECURITY_CLASSIFICATION_LEVEL ( 'unclassified' ) ;
#120 = EDGE_LOOP ( 'NONE', ( #41, #140, #125, #221 ) ) ;
#121 = APPROVAL_DATE_TIME ( #161, #3 ) ;
#122 = AXIS2_PLACEMENT_3D ( 'NONE', #209, #66, #7 ) ;
#123 = ORIENTED_EDGE ( 'NONE', *, *, #106, .T. ) ;
#124 = PERSON_AND_ORGANIZATION_ROLE ( 'classification_officer' ) ;
#125 = ORIENTED_EDGE ( 'NONE', *, *, #64, .T. ) ;
#126 = CARTESIAN_POINT ( 'NONE',  ( 0.000000000000000000, 0.000000000000000000, 0.000000000000000000 ) ) ;
#127 = CARTESIAN_POINT ( 'NONE',  ( 0.5000000000000003331, -3.654601953710549566E-15, 11.00000000000000000 ) ) ;
#128 = APPROVAL_DATE_TIME ( #55, #81 ) ;
#129 = CARTESIAN_POINT ( 'NONE',  ( 19.00000000000000000, 3.425867797929116069E-15, -7.500000000000000000 ) ) ;
#130 = PLANE ( 'NONE',  #283 ) ;
#131 = CIRCLE ( 'NONE', #218, 7.499999999999992895 ) ;
#132 = FACE_OUTER_BOUND ( 'NONE', #120, .T. ) ;
#133 = CC_DESIGN_DATE_AND_TIME_ASSIGNMENT ( #291, #40, ( #154 ) ) ;
#134 = DIRECTION ( 'NONE',  ( -1.000000000000000000, 9.874624381049007822E-19, -6.791357486797786318E-18 ) ) ;
#135 = AXIS2_PLACEMENT_3D ( 'NONE', #191, #11, #95 ) ;
#136 = FACE_OUTER_BOUND ( 'NONE', #33, .T. ) ;
#137 = EDGE_CURVE ( 'NONE', #87, #187, #287, .T. ) ;
#138 =( LENGTH_UNIT ( ) NAMED_UNIT ( * ) SI_UNIT ( .MILLI., .METRE. ) );
#139 = ORIENTED_EDGE ( 'NONE', *, *, #194, .T. ) ;
#140 = ORIENTED_EDGE ( 'NONE', *, *, #137, .F. ) ;
#141 = CC_DESIGN_PERSON_AND_ORGANIZATION_ASSIGNMENT ( #242, #124, ( #288 ) ) ;
#142 = APPROVAL_DATE_TIME ( #30, #34 ) ;
#143 = VERTEX_POINT ( 'NONE', #129 ) ;
#144 = APPROVAL_STATUS ( 'not_yet_approved' ) ;
#145 = FACE_BOUND ( 'NONE', #293, .T. ) ;
#146 = COORDINATED_UNIVERSAL_TIME_OFFSET ( 10, 0, .AHEAD. ) ;
#147 = FACE_OUTER_BOUND ( 'NONE', #236, .T. ) ;
#148 = CARTESIAN_POINT ( 'NONE',  ( 19.00000000000000000, -2.488620912244607890E-15, 7.500000000000000000 ) ) ;
#149 = DIRECTION ( 'NONE',  ( -9.856383386231867455E-18, 3.330669073875473073E-16, -1.000000000000000000 ) ) ;
#150 = ORGANIZATION ( 'UNSPECIFIED', 'UNSPECIFIED', '' ) ;
#151 = CONICAL_SURFACE ( 'NONE', #47, 10.99999999999998934, 0.7853981633974533860 ) ;
#152 = DIRECTION ( 'NONE',  ( 0.000000000000000000, -3.330669073875472579E-16, 1.000000000000000000 ) ) ;
#153 = CC_DESIGN_DATE_AND_TIME_ASSIGNMENT ( #231, #101, ( #288 ) ) ;
#154 = PRODUCT_DEFINITION ( 'UNKNOWN', '', #299, #255 ) ;
#155 = CARTESIAN_POINT ( 'NONE',  ( 19.00000000000000000, 3.416486904767116616E-15, -7.499999999999992895 ) ) ;
#156 = EDGE_CURVE ( 'NONE', #14, #73, #271, .T. ) ;
#157 = CC_DESIGN_APPROVAL ( #81, ( #288 ) ) ;
#158 = PERSON_AND_ORGANIZATION ( #164, #150 ) ;
#159 = ORIENTED_EDGE ( 'NONE', *, *, #156, .T. ) ;
#160 = ORIENTED_EDGE ( 'NONE', *, *, #20, .T. ) ;
#161 = DATE_AND_TIME ( #35, #275 ) ;
#162 = EDGE_LOOP ( 'NONE', ( #118, #181, #292, #2 ) ) ;
#163 = ORIENTED_EDGE ( 'NONE', *, *, #67, .T. ) ;
#164 = PERSON ( 'UNSPECIFIED', 'UNSPECIFIED', 'UNSPECIFIED', ('UNSPECIFIED'), ('UNSPECIFIED'), ('UNSPECIFIED') ) ;
#165 = PERSON_AND_ORGANIZATION_ROLE ( 'design_owner' ) ;
#166 = ORIENTED_EDGE ( 'NONE', *, *, #67, .F. ) ;
#167 = ADVANCED_FACE ( 'NONE', ( #44, #248 ), #130, .T. ) ;
#168 = CIRCLE ( 'NONE', #278, 10.99999999999998934 ) ;
#169 = ORIENTED_EDGE ( 'NONE', *, *, #93, .T. ) ;
#170 = DIRECTION ( 'NONE',  ( 1.000000000000000000, -9.874624381049007822E-19, 6.791357486797786318E-18 ) ) ;
#171 = FACE_OUTER_BOUND ( 'NONE', #162, .T. ) ;
#172 = ADVANCED_FACE ( 'NONE', ( #171 ), #233, .T. ) ;
#173 = VECTOR ( 'NONE', #85, 1000.000000000000000 ) ;
#174 = CARTESIAN_POINT ( 'NONE',  ( 0.5000000000000005551, 5.019981487877578908E-15, -11.00000000000000000 ) ) ;
#175 = DIRECTION ( 'NONE',  ( -9.856383386231867455E-18, 3.330669073875473073E-16, -1.000000000000000000 ) ) ;
#176 = CARTESIAN_POINT ( 'NONE',  ( 19.00000000000000000, 0.000000000000000000, 0.000000000000000000 ) ) ;
#177 = ADVANCED_FACE ( 'NONE', ( #247 ), #204, .T. ) ;
#178 = DIRECTION ( 'NONE',  ( 0.000000000000000000, 3.330669073875472579E-16, -1.000000000000000000 ) ) ;
#179 = AXIS2_PLACEMENT_3D ( 'NONE', #98, #72, #10 ) ;
#180 = CC_DESIGN_SECURITY_CLASSIFICATION ( #288, ( #299 ) ) ;
#181 = ORIENTED_EDGE ( 'NONE', *, *, #203, .T. ) ;
#182 = CARTESIAN_POINT ( 'NONE',  ( 19.00000000000000000, 0.000000000000000000, 0.000000000000000000 ) ) ;
#183 = AXIS2_PLACEMENT_3D ( 'NONE', #104, #170, #225 ) ;
#184 = PERSON_AND_ORGANIZATION_ROLE ( 'creator' ) ;
#185 = ORIENTED_EDGE ( 'NONE', *, *, #28, .T. ) ;
#186 = EDGE_CURVE ( 'NONE', #143, #243, #29, .T. ) ;
#187 = VERTEX_POINT ( 'NONE', #5 ) ;
#188 = AXIS2_PLACEMENT_3D ( 'NONE', #26, #68, #1 ) ;
#189 = AXIS2_PLACEMENT_3D ( 'NONE', #273, #60, #149 ) ;
#190 = PERSON_AND_ORGANIZATION ( #164, #150 ) ;
#191 = CARTESIAN_POINT ( 'NONE',  ( 0.000000000000000000, 0.000000000000000000, 0.000000000000000000 ) ) ;
#192 = CALENDAR_DATE ( 2026, 4, 3 ) ;
#193 = ORIENTED_EDGE ( 'NONE', *, *, #46, .T. ) ;
#194 = EDGE_CURVE ( 'NONE', #187, #87, #79, .T. ) ;
#195 = PERSON_AND_ORGANIZATION ( #164, #150 ) ;
#196 = EDGE_LOOP ( 'NONE', ( #220, #19 ) ) ;
#197 = VECTOR ( 'NONE', #200, 1000.000000000000114 ) ;
#198 =( GEOMETRIC_REPRESENTATION_CONTEXT ( 3 ) GLOBAL_UNCERTAINTY_ASSIGNED_CONTEXT ( ( #94 ) ) GLOBAL_UNIT_ASSIGNED_CONTEXT ( ( #138, #13, #285 ) ) REPRESENTATION_CONTEXT ( 'NONE', 'WORKASPACE' ) );
#199 = LINE ( 'NONE', #80, #197 ) ;
#200 = DIRECTION ( 'NONE',  ( 0.7071067811865441310, 2.348156274164165247E-16, -0.7071067811865507924 ) ) ;
#201 = CARTESIAN_POINT ( 'NONE',  ( 19.00000000000000000, 0.000000000000000000, 0.000000000000000000 ) ) ;
#202 = LOCAL_TIME ( 13, 56, 34.00000000000000000, #96 ) ;
#203 = EDGE_CURVE ( 'NONE', #187, #73, #8, .T. ) ;
#204 = CYLINDRICAL_SURFACE ( 'NONE', #210, 10.99999999999998934 ) ;
#205 = ORIENTED_EDGE ( 'NONE', *, *, #28, .F. ) ;
#206 = DIRECTION ( 'NONE',  ( 1.000000000000000000, -9.874624381049007822E-19, 6.791357486797786318E-18 ) ) ;
#207 = CIRCLE ( 'NONE', #241, 10.99999999999998934 ) ;
#208 = EDGE_CURVE ( 'NONE', #18, #143, #88, .T. ) ;
#209 = CARTESIAN_POINT ( 'NONE',  ( 0.5000000000000004441, 0.000000000000000000, 0.000000000000000000 ) ) ;
#210 = AXIS2_PLACEMENT_3D ( 'NONE', #182, #134, #25 ) ;
#211 = COORDINATED_UNIVERSAL_TIME_OFFSET ( 10, 0, .AHEAD. ) ;
#212 = ORIENTED_EDGE ( 'NONE', *, *, #208, .T. ) ;
#213 = CC_DESIGN_PERSON_AND_ORGANIZATION_ASSIGNMENT ( #289, #165, ( #91 ) ) ;
#214 = CALENDAR_DATE ( 2026, 4, 3 ) ;
#215 = DIRECTION ( 'NONE',  ( -6.791357486797771681E-18, 3.330669073875472579E-16, -1.000000000000000000 ) ) ;
#216 = CALENDAR_DATE ( 2026, 4, 3 ) ;
#217 = EDGE_LOOP ( 'NONE', ( #238, #163, #169, #108 ) ) ;
#218 = AXIS2_PLACEMENT_3D ( 'NONE', #31, #36, #215 ) ;
#219 = APPROVAL_ROLE ( '' ) ;
#220 = ORIENTED_EDGE ( 'NONE', *, *, #208, .F. ) ;
#221 = ORIENTED_EDGE ( 'NONE', *, *, #257, .F. ) ;
#222 = CARTESIAN_POINT ( 'NONE',  ( 19.00000000000000000, 0.000000000000000000, 0.000000000000000000 ) ) ;
#223 = CC_DESIGN_PERSON_AND_ORGANIZATION_ASSIGNMENT ( #256, #32, ( #299 ) ) ;
#224 = DIRECTION ( 'NONE',  ( -1.000000000000000000, 9.874624381049007822E-19, -6.791357486797786318E-18 ) ) ;
#225 = DIRECTION ( 'NONE',  ( 0.000000000000000000, 3.330669073875472579E-16, -1.000000000000000000 ) ) ;
#226 = PRODUCT_DEFINITION_SHAPE ( 'NONE', 'NONE',  #154 ) ;
#227 = FACE_OUTER_BOUND ( 'NONE', #49, .T. ) ;
#228 = APPLICATION_CONTEXT ( 'configuration controlled 3d designs of mechanical parts and assemblies' ) ;
#229 = APPROVAL_PERSON_ORGANIZATION ( #237, #3, #219 ) ;
#230 = DIRECTION ( 'NONE',  ( -1.000000000000000000, 9.874624381049007822E-19, -6.791357486797786318E-18 ) ) ;
#231 = DATE_AND_TIME ( #117, #279 ) ;
#232 = ADVANCED_FACE ( 'NONE', ( #227 ), #282, .F. ) ;
#233 = CONICAL_SURFACE ( 'NONE', #189, 10.99999999999998934, 0.7853981633974533860 ) ;
#234 = CC_DESIGN_APPROVAL ( #3, ( #154 ) ) ;
#235 = PERSON_AND_ORGANIZATION_ROLE ( 'creator' ) ;
#236 = EDGE_LOOP ( 'NONE', ( #253, #139 ) ) ;
#237 = PERSON_AND_ORGANIZATION ( #164, #150 ) ;
#238 = ORIENTED_EDGE ( 'NONE', *, *, #111, .F. ) ;
#239 = ADVANCED_FACE ( 'NONE', ( #136 ), #48, .F. ) ;
#240 = DIRECTION ( 'NONE',  ( -1.000000000000000000, 9.874624381049007822E-19, -6.791357486797786318E-18 ) ) ;
#241 = AXIS2_PLACEMENT_3D ( 'NONE', #23, #105, #175 ) ;
#242 = PERSON_AND_ORGANIZATION ( #164, #150 ) ;
#243 = VERTEX_POINT ( 'NONE', #86 ) ;
#244 = CARTESIAN_POINT ( 'NONE',  ( 19.00000000000000000, -3.663735981263016583E-15, 10.99999999999998934 ) ) ;
#245 = CARTESIAN_POINT ( 'NONE',  ( -7.130925361137646129E-17, 3.497202527569239947E-15, -10.49999999999998224 ) ) ;
#246 = CC_DESIGN_PERSON_AND_ORGANIZATION_ASSIGNMENT ( #17, #184, ( #154 ) ) ;
#247 = FACE_OUTER_BOUND ( 'NONE', #217, .T. ) ;
#248 = FACE_BOUND ( 'NONE', #196, .T. ) ;
#249 = CARTESIAN_POINT ( 'NONE',  ( 19.00000000000000000, 0.000000000000000000, 0.000000000000000000 ) ) ;
#250 = DIRECTION ( 'NONE',  ( 1.000000000000000000, -9.874624381049007822E-19, 6.791357486797786318E-18 ) ) ;
#251 = LOCAL_TIME ( 13, 56, 34.00000000000000000, #211 ) ;
#252 = DIRECTION ( 'NONE',  ( -1.000000000000000000, 9.874624381049007822E-19, -6.791357486797786318E-18 ) ) ;
#253 = ORIENTED_EDGE ( 'NONE', *, *, #137, .T. ) ;
#254 = CARTESIAN_POINT ( 'NONE',  ( 19.00000000000000000, 0.000000000000000000, 0.000000000000000000 ) ) ;
#255 = DESIGN_CONTEXT ( 'detailed design', #228, 'design' ) ;
#256 = PERSON_AND_ORGANIZATION ( #164, #150 ) ;
#257 = EDGE_CURVE ( 'NONE', #73, #78, #297, .T. ) ;
#258 = ORIENTED_EDGE ( 'NONE', *, *, #186, .F. ) ;
#259 = MECHANICAL_CONTEXT ( 'NONE', #262, 'mechanical' ) ;
#260 = ORIENTED_EDGE ( 'NONE', *, *, #46, .F. ) ;
#261 = AXIS2_PLACEMENT_3D ( 'NONE', #90, #250, #178 ) ;
#262 = APPLICATION_CONTEXT ( 'configuration controlled 3d designs of mechanical parts and assemblies' ) ;
#263 = DIRECTION ( 'NONE',  ( -9.856383386231867455E-18, 3.330669073875473073E-16, -1.000000000000000000 ) ) ;
#264 = MANIFOLD_SOLID_BREP ( 'Chamfer2', #110 ) ;
#265 = COORDINATED_UNIVERSAL_TIME_OFFSET ( 10, 0, .AHEAD. ) ;
#266 = VERTEX_POINT ( 'NONE', #70 ) ;
#267 = APPROVAL_STATUS ( 'not_yet_approved' ) ;
#268 = ORIENTED_EDGE ( 'NONE', *, *, #20, .F. ) ;
#269 = LOCAL_TIME ( 13, 56, 34.00000000000000000, #146 ) ;
#270 = CARTESIAN_POINT ( 'NONE',  ( 19.00000000000000000, -3.654601953710549566E-15, 11.00000000000000000 ) ) ;
#271 = LINE ( 'NONE', #244, #107 ) ;
#272 = ADVANCED_FACE ( 'NONE', ( #132 ), #151, .T. ) ;
#273 = CARTESIAN_POINT ( 'NONE',  ( 0.5000000000000004441, 0.000000000000000000, 0.000000000000000000 ) ) ;
#274 = VECTOR ( 'NONE', #240, 1000.000000000000000 ) ;
#275 = LOCAL_TIME ( 13, 56, 34.00000000000000000, #37 ) ;
#276 = CARTESIAN_POINT ( 'NONE',  ( 19.00000000000000000, 5.010847460325104002E-15, -10.99999999999998934 ) ) ;
#277 = DIRECTION ( 'NONE',  ( -1.000000000000000000, 9.874624381049007822E-19, -6.791357486797786318E-18 ) ) ;
#278 = AXIS2_PLACEMENT_3D ( 'NONE', #176, #62, #298 ) ;
#279 = LOCAL_TIME ( 13, 56, 34.00000000000000000, #265 ) ;
#280 = CC_DESIGN_PERSON_AND_ORGANIZATION_ASSIGNMENT ( #190, #235, ( #299 ) ) ;
#281 = CARTESIAN_POINT ( 'NONE',  ( 0.5000000000000005551, -2.316624502200928770E-15, 10.99999999999998934 ) ) ;
#282 = CYLINDRICAL_SURFACE ( 'NONE', #188, 7.499999999999992895 ) ;
#283 = AXIS2_PLACEMENT_3D ( 'NONE', #222, #294, #22 ) ;
#284 = APPLICATION_PROTOCOL_DEFINITION ( 'international standard', 'config_control_design', 1994, #262 ) ;
#285 =( NAMED_UNIT ( * ) SI_UNIT ( $, .STERADIAN. ) SOLID_ANGLE_UNIT ( ) );
#286 = CARTESIAN_POINT ( 'NONE',  ( 0.000000000000000000, 0.000000000000000000, 0.000000000000000000 ) ) ;
#287 = CIRCLE ( 'NONE', #103, 10.49999999999998224 ) ;
#288 = SECURITY_CLASSIFICATION ( '', '', #119 ) ;
#289 = PERSON_AND_ORGANIZATION ( #164, #150 ) ;
#290 = ORIENTED_EDGE ( 'NONE', *, *, #84, .T. ) ;
#291 = DATE_AND_TIME ( #192, #202 ) ;
#292 = ORIENTED_EDGE ( 'NONE', *, *, #93, .F. ) ;
#293 = EDGE_LOOP ( 'NONE', ( #185, #160 ) ) ;
#294 = DIRECTION ( 'NONE',  ( 1.000000000000000000, -9.874624381048961600E-19, -6.791357486797770911E-18 ) ) ;
#295 = LINE ( 'NONE', #276, #173 ) ;
#296 = CIRCLE ( 'NONE', #183, 7.499999999999992895 ) ;
#297 = CIRCLE ( 'NONE', #122, 10.99999999999998934 ) ;
#298 = DIRECTION ( 'NONE',  ( 0.000000000000000000, 3.330669073875473073E-16, -1.000000000000000000 ) ) ;
#299 = PRODUCT_DEFINITION_FORMATION_WITH_SPECIFIED_SOURCE ( 'ANY', '', #91, .NOT_KNOWN. ) ;
ENDSEC;
END-ISO-10303-21;
