ISO-10303-21;
HEADER;
FILE_DESCRIPTION (( 'STEP AP203' ),
    '1' );
FILE_NAME ('OEM-100-LR-40-316L_REV_.step',
    '2026-01-19T23:26:06',
    ( '' ),
    ( '' ),
    'SwSTEP 2.0',
    'SolidWorks 2025',
    '' );
FILE_SCHEMA (( 'CONFIG_CONTROL_DESIGN' ));
ENDSEC;

DATA;
#1 = ADVANCED_FACE ( 'NONE', ( #143 ), #164, .T. ) ;
#2 = DIRECTION ( 'NONE',  ( 0.000000000000000000, 0.000000000000000000, -1.000000000000000000 ) ) ;
#3 = CIRCLE ( 'NONE', #92, 101.3699999999999903 ) ;
#4 = PERSON_AND_ORGANIZATION_ROLE ( 'creator' ) ;
#5 = CARTESIAN_POINT ( 'NONE',  ( 0.000000000000000000, 152.5000000000000000, 0.000000000000000000 ) ) ;
#6 = CC_DESIGN_DATE_AND_TIME_ASSIGNMENT ( #63, #46, ( #133 ) ) ;
#7 = AXIS2_PLACEMENT_3D ( 'NONE', #78, #103, #22 ) ;
#8 = MECHANICAL_CONTEXT ( 'NONE', #191, 'mechanical' ) ;
#9 = DATE_AND_TIME ( #139, #91 ) ;
#10 = ORIENTED_EDGE ( 'NONE', *, *, #52, .T. ) ;
#11 = ORIENTED_EDGE ( 'NONE', *, *, #35, .T. ) ;
#12 = SHAPE_DEFINITION_REPRESENTATION ( #234, #42 ) ;
#13 = CARTESIAN_POINT ( 'NONE',  ( -152.5000000000000000, 9.337931843498567669E-15, 0.000000000000000000 ) ) ;
#14 = EDGE_CURVE ( 'NONE', #83, #246, #3, .T. ) ;
#15 = CARTESIAN_POINT ( 'NONE',  ( 0.000000000000000000, 0.000000000000000000, -6.998856457127124130E-15 ) ) ;
#16 = COORDINATED_UNIVERSAL_TIME_OFFSET ( 10, 0, .AHEAD. ) ;
#17 = CC_DESIGN_SECURITY_CLASSIFICATION ( #227, ( #70 ) ) ;
#18 = AXIS2_PLACEMENT_3D ( 'NONE', #47, #141, #109 ) ;
#19 = APPROVAL_ROLE ( '' ) ;
#20 = DIRECTION ( 'NONE',  ( 1.000000000000000000, 0.000000000000000000, 0.000000000000000000 ) ) ;
#21 = ADVANCED_FACE ( 'NONE', ( #62, #225 ), #30, .T. ) ;
#22 = DIRECTION ( 'NONE',  ( 0.000000000000000000, 0.000000000000000000, -1.000000000000000000 ) ) ;
#23 = CLOSED_SHELL ( 'NONE', ( #118, #196, #152, #64, #21, #1 ) ) ;
#24 = UNCERTAINTY_MEASURE_WITH_UNIT (LENGTH_MEASURE( 1.000000000000000082E-05 ), #79, 'distance_accuracy_value', 'NONE');
#25 =( NAMED_UNIT ( * ) PLANE_ANGLE_UNIT ( ) SI_UNIT ( $, .RADIAN. ) );
#26 = EDGE_CURVE ( 'NONE', #246, #174, #115, .T. ) ;
#27 = PERSON ( 'UNSPECIFIED', 'UNSPECIFIED', 'UNSPECIFIED', ('UNSPECIFIED'), ('UNSPECIFIED'), ('UNSPECIFIED') ) ;
#28 = ORIENTED_EDGE ( 'NONE', *, *, #95, .T. ) ;
#29 = COORDINATED_UNIVERSAL_TIME_OFFSET ( 10, 0, .AHEAD. ) ;
#30 = PLANE ( 'NONE',  #18 ) ;
#31 = ORIENTED_EDGE ( 'NONE', *, *, #26, .F. ) ;
#32 = ORIENTED_EDGE ( 'NONE', *, *, #251, .F. ) ;
#33 = ORIENTED_EDGE ( 'NONE', *, *, #251, .T. ) ;
#34 = FACE_OUTER_BOUND ( 'NONE', #188, .T. ) ;
#35 = EDGE_CURVE ( 'NONE', #170, #249, #132, .T. ) ;
#36 = CIRCLE ( 'NONE', #224, 203.6299999999999955 ) ;
#37 = DIRECTION ( 'NONE',  ( 1.000000000000000000, 0.000000000000000000, 0.000000000000000000 ) ) ;
#38 = CC_DESIGN_DATE_AND_TIME_ASSIGNMENT ( #108, #84, ( #227 ) ) ;
#39 = CARTESIAN_POINT ( 'NONE',  ( 0.000000000000000000, 0.000000000000000000, 0.000000000000000000 ) ) ;
#40 = DIRECTION ( 'NONE',  ( 1.000000000000000000, 0.000000000000000000, 0.000000000000000000 ) ) ;
#41 = DIRECTION ( 'NONE',  ( 1.000000000000000000, 0.000000000000000000, 0.000000000000000000 ) ) ;
#42 = ADVANCED_BREP_SHAPE_REPRESENTATION ( 'OEM-100-LR-40-316L_REV_', ( #138, #176 ), #135 ) ;
#43 = CC_DESIGN_APPROVAL ( #112, ( #133 ) ) ;
#44 = CIRCLE ( 'NONE', #197, 209.6500000000000057 ) ;
#45 = ORIENTED_EDGE ( 'NONE', *, *, #85, .T. ) ;
#46 = DATE_TIME_ROLE ( 'creation_date' ) ;
#47 = CARTESIAN_POINT ( 'NONE',  ( 0.000000000000000000, 152.5000000000000000, 0.000000000000000000 ) ) ;
#48 = DIRECTION ( 'NONE',  ( 0.000000000000000000, 0.000000000000000000, -1.000000000000000000 ) ) ;
#49 = PERSON_AND_ORGANIZATION_ROLE ( 'creator' ) ;
#50 = ORIENTED_EDGE ( 'NONE', *, *, #52, .F. ) ;
#51 = ORIENTED_EDGE ( 'NONE', *, *, #218, .T. ) ;
#52 = EDGE_CURVE ( 'NONE', #126, #111, #44, .T. ) ;
#53 = DIRECTION ( 'NONE',  ( 0.000000000000000000, 0.000000000000000000, 1.000000000000000000 ) ) ;
#54 = LOCAL_TIME ( 10, 26, 6.000000000000000000, #29 ) ;
#55 = CARTESIAN_POINT ( 'NONE',  ( -152.5000000000000000, 9.337931843498567669E-15, 0.000000000000000000 ) ) ;
#56 =( NAMED_UNIT ( * ) SI_UNIT ( $, .STERADIAN. ) SOLID_ANGLE_UNIT ( ) );
#57 = ORGANIZATION ( 'UNSPECIFIED', 'UNSPECIFIED', '' ) ;
#58 = CARTESIAN_POINT ( 'NONE',  ( 0.000000000000000000, 0.000000000000000000, 0.000000000000000000 ) ) ;
#59 = CC_DESIGN_PERSON_AND_ORGANIZATION_ASSIGNMENT ( #66, #222, ( #70 ) ) ;
#60 = COORDINATED_UNIVERSAL_TIME_OFFSET ( 10, 0, .AHEAD. ) ;
#61 = APPROVAL_DATE_TIME ( #189, #205 ) ;
#62 = FACE_BOUND ( 'NONE', #210, .T. ) ;
#63 = DATE_AND_TIME ( #171, #239 ) ;
#64 = ADVANCED_FACE ( 'NONE', ( #198, #34 ), #179, .F. ) ;
#65 = DIRECTION ( 'NONE',  ( 1.000000000000000000, 0.000000000000000000, 0.000000000000000000 ) ) ;
#66 = PERSON_AND_ORGANIZATION ( #27, #57 ) ;
#67 = ORIENTED_EDGE ( 'NONE', *, *, #233, .F. ) ;
#68 = CC_DESIGN_APPROVAL ( #205, ( #227 ) ) ;
#69 = APPROVAL_STATUS ( 'not_yet_approved' ) ;
#70 = PRODUCT_DEFINITION_FORMATION_WITH_SPECIFIED_SOURCE ( 'ANY', '', #97, .NOT_KNOWN. ) ;
#71 = EDGE_LOOP ( 'NONE', ( #50, #116, #11, #72 ) ) ;
#72 = ORIENTED_EDGE ( 'NONE', *, *, #233, .T. ) ;
#73 = CIRCLE ( 'NONE', #242, 57.15000000000000568 ) ;
#74 = EDGE_CURVE ( 'NONE', #111, #249, #86, .T. ) ;
#75 = AXIS2_PLACEMENT_3D ( 'NONE', #13, #89, #48 ) ;
#76 = CARTESIAN_POINT ( 'NONE',  ( 0.000000000000000000, 152.5000000000000000, 0.000000000000000000 ) ) ;
#77 = CARTESIAN_POINT ( 'NONE',  ( 0.000000000000000000, 0.000000000000000000, 0.000000000000000000 ) ) ;
#78 = CARTESIAN_POINT ( 'NONE',  ( 0.000000000000000000, 152.5000000000000000, 0.000000000000000000 ) ) ;
#79 =( LENGTH_UNIT ( ) NAMED_UNIT ( * ) SI_UNIT ( .MILLI., .METRE. ) );
#80 = AXIS2_PLACEMENT_3D ( 'NONE', #55, #194, #2 ) ;
#81 = PERSON_AND_ORGANIZATION_ROLE ( 'design_owner' ) ;
#82 = CARTESIAN_POINT ( 'NONE',  ( 0.000000000000000000, 95.34999999999999432, -6.998856457127124130E-15 ) ) ;
#83 = VERTEX_POINT ( 'NONE', #153 ) ;
#84 = DATE_TIME_ROLE ( 'classification_date' ) ;
#85 = EDGE_CURVE ( 'NONE', #83, #87, #147, .T. ) ;
#86 = CIRCLE ( 'NONE', #221, 57.15000000000000568 ) ;
#87 = VERTEX_POINT ( 'NONE', #94 ) ;
#88 = PERSON_AND_ORGANIZATION_ROLE ( 'classification_officer' ) ;
#89 = DIRECTION ( 'NONE',  ( -6.123233995736766036E-17, -1.000000000000000000, -0.000000000000000000 ) ) ;
#90 = DATE_AND_TIME ( #110, #54 ) ;
#91 = LOCAL_TIME ( 10, 26, 6.000000000000000000, #60 ) ;
#92 = AXIS2_PLACEMENT_3D ( 'NONE', #163, #245, #65 ) ;
#93 = EDGE_LOOP ( 'NONE', ( #32, #206, #190, #208 ) ) ;
#94 = CARTESIAN_POINT ( 'NONE',  ( 0.000000000000000000, 203.6299999999999955, 0.000000000000000000 ) ) ;
#95 = EDGE_CURVE ( 'NONE', #87, #83, #187, .T. ) ;
#96 = APPROVAL_PERSON_ORGANIZATION ( #237, #112, #241 ) ;
#97 = PRODUCT ( 'OEM-100-LR-40-316L_REV_', 'OEM-100-LR-40-316L_REV_', '', ( #8 ) ) ;
#98 = CARTESIAN_POINT ( 'NONE',  ( -152.5000000000000000, 9.337931843498567669E-15, 0.000000000000000000 ) ) ;
#99 = DIRECTION ( 'NONE',  ( 1.000000000000000000, 0.000000000000000000, 0.000000000000000000 ) ) ;
#100 = PRODUCT_RELATED_PRODUCT_CATEGORY ( 'detail', '', ( #97 ) ) ;
#101 = PERSON_AND_ORGANIZATION ( #27, #57 ) ;
#102 = DIRECTION ( 'NONE',  ( 0.000000000000000000, 0.000000000000000000, -1.000000000000000000 ) ) ;
#103 = DIRECTION ( 'NONE',  ( 1.000000000000000000, 0.000000000000000000, 0.000000000000000000 ) ) ;
#104 = AXIS2_PLACEMENT_3D ( 'NONE', #39, #215, #41 ) ;
#105 = CC_DESIGN_PERSON_AND_ORGANIZATION_ASSIGNMENT ( #101, #4, ( #133 ) ) ;
#106 = ORIENTED_EDGE ( 'NONE', *, *, #35, .F. ) ;
#107 = AXIS2_PLACEMENT_3D ( 'NONE', #145, #167, #244 ) ;
#108 = DATE_AND_TIME ( #204, #220 ) ;
#109 = DIRECTION ( 'NONE',  ( 0.000000000000000000, 0.000000000000000000, -1.000000000000000000 ) ) ;
#110 = CALENDAR_DATE ( 2026, 20, 1 ) ;
#111 = VERTEX_POINT ( 'NONE', #195 ) ;
#112 = APPROVAL ( #216, 'UNSPECIFIED' ) ;
#113 = ORIENTED_EDGE ( 'NONE', *, *, #181, .F. ) ;
#114 = COORDINATED_UNIVERSAL_TIME_OFFSET ( 10, 0, .AHEAD. ) ;
#115 = CIRCLE ( 'NONE', #75, 51.13000000000000256 ) ;
#116 = ORIENTED_EDGE ( 'NONE', *, *, #177, .F. ) ;
#117 = DIRECTION ( 'NONE',  ( 0.000000000000000000, 0.000000000000000000, 1.000000000000000000 ) ) ;
#118 = ADVANCED_FACE ( 'NONE', ( #131 ), #122, .F. ) ;
#119 = DIRECTION ( 'NONE',  ( 0.000000000000000000, 0.000000000000000000, -1.000000000000000000 ) ) ;
#120 = AXIS2_PLACEMENT_3D ( 'NONE', #134, #117, #212 ) ;
#121 = CARTESIAN_POINT ( 'NONE',  ( -152.5000000000000000, 9.337931843498567669E-15, 0.000000000000000000 ) ) ;
#122 = TOROIDAL_SURFACE ( 'NONE', #120, 152.5000000000000000, 51.13000000000000256 ) ;
#123 = DIRECTION ( 'NONE',  ( 1.000000000000000000, 0.000000000000000000, 0.000000000000000000 ) ) ;
#124 = DIRECTION ( 'NONE',  ( 0.000000000000000000, 0.000000000000000000, -1.000000000000000000 ) ) ;
#125 = DIRECTION ( 'NONE',  ( 6.123233995736766036E-17, 1.000000000000000000, 0.000000000000000000 ) ) ;
#126 = VERTEX_POINT ( 'NONE', #156 ) ;
#127 = ORIENTED_EDGE ( 'NONE', *, *, #14, .F. ) ;
#128 = ORIENTED_EDGE ( 'NONE', *, *, #74, .F. ) ;
#129 = EDGE_LOOP ( 'NONE', ( #151, #10, #148, #106 ) ) ;
#130 = ORIENTED_EDGE ( 'NONE', *, *, #181, .T. ) ;
#131 = FACE_OUTER_BOUND ( 'NONE', #192, .T. ) ;
#132 = CIRCLE ( 'NONE', #159, 95.34999999999999432 ) ;
#133 = PRODUCT_DEFINITION ( 'UNKNOWN', '', #70, #142 ) ;
#134 = CARTESIAN_POINT ( 'NONE',  ( 0.000000000000000000, 0.000000000000000000, 0.000000000000000000 ) ) ;
#135 =( GEOMETRIC_REPRESENTATION_CONTEXT ( 3 ) GLOBAL_UNCERTAINTY_ASSIGNED_CONTEXT ( ( #24 ) ) GLOBAL_UNIT_ASSIGNED_CONTEXT ( ( #79, #25, #56 ) ) REPRESENTATION_CONTEXT ( 'NONE', 'WORKASPACE' ) );
#136 = APPLICATION_PROTOCOL_DEFINITION ( 'international standard', 'config_control_design', 1994, #191 ) ;
#137 = FACE_OUTER_BOUND ( 'NONE', #93, .T. ) ;
#138 = MANIFOLD_SOLID_BREP ( 'Sweep1', #23 ) ;
#139 = CALENDAR_DATE ( 2026, 20, 1 ) ;
#140 = AXIS2_PLACEMENT_3D ( 'NONE', #240, #200, #124 ) ;
#141 = DIRECTION ( 'NONE',  ( 1.000000000000000000, 0.000000000000000000, 0.000000000000000000 ) ) ;
#142 = DESIGN_CONTEXT ( 'detailed design', #243, 'design' ) ;
#143 = FACE_OUTER_BOUND ( 'NONE', #71, .T. ) ;
#144 = SECURITY_CLASSIFICATION_LEVEL ( 'unclassified' ) ;
#145 = CARTESIAN_POINT ( 'NONE',  ( 0.000000000000000000, 0.000000000000000000, 0.000000000000000000 ) ) ;
#146 = PERSON_AND_ORGANIZATION ( #27, #57 ) ;
#147 = CIRCLE ( 'NONE', #180, 51.13000000000000256 ) ;
#148 = ORIENTED_EDGE ( 'NONE', *, *, #74, .T. ) ;
#149 = CIRCLE ( 'NONE', #150, 57.15000000000000568 ) ;
#150 = AXIS2_PLACEMENT_3D ( 'NONE', #5, #40, #102 ) ;
#151 = ORIENTED_EDGE ( 'NONE', *, *, #218, .F. ) ;
#152 = ADVANCED_FACE ( 'NONE', ( #137 ), #211, .F. ) ;
#153 = CARTESIAN_POINT ( 'NONE',  ( 0.000000000000000000, 101.3699999999999903, -6.261619084040416519E-15 ) ) ;
#154 = CIRCLE ( 'NONE', #7, 57.15000000000000568 ) ;
#155 = DIRECTION ( 'NONE',  ( 0.000000000000000000, 0.000000000000000000, -1.000000000000000000 ) ) ;
#156 = CARTESIAN_POINT ( 'NONE',  ( 0.000000000000000000, 209.6500000000000057, 0.000000000000000000 ) ) ;
#157 = PERSON_AND_ORGANIZATION ( #27, #57 ) ;
#158 = CARTESIAN_POINT ( 'NONE',  ( -101.3699999999999903, 6.207122301478358620E-15, -6.261619084040416519E-15 ) ) ;
#159 = AXIS2_PLACEMENT_3D ( 'NONE', #15, #175, #99 ) ;
#160 = APPLICATION_PROTOCOL_DEFINITION ( 'international standard', 'config_control_design', 1994, #243 ) ;
#161 = DIRECTION ( 'NONE',  ( 0.000000000000000000, 0.000000000000000000, 1.000000000000000000 ) ) ;
#162 = APPROVAL_PERSON_ORGANIZATION ( #168, #205, #165 ) ;
#163 = CARTESIAN_POINT ( 'NONE',  ( 0.000000000000000000, 0.000000000000000000, -6.261619084040417307E-15 ) ) ;
#164 = TOROIDAL_SURFACE ( 'NONE', #107, 152.5000000000000000, 57.15000000000000568 ) ;
#165 = APPROVAL_ROLE ( '' ) ;
#166 = AXIS2_PLACEMENT_3D ( 'NONE', #182, #238, #123 ) ;
#167 = DIRECTION ( 'NONE',  ( 0.000000000000000000, 0.000000000000000000, 1.000000000000000000 ) ) ;
#168 = PERSON_AND_ORGANIZATION ( #27, #57 ) ;
#169 = CC_DESIGN_PERSON_AND_ORGANIZATION_ASSIGNMENT ( #157, #81, ( #97 ) ) ;
#170 = VERTEX_POINT ( 'NONE', #82 ) ;
#171 = CALENDAR_DATE ( 2026, 20, 1 ) ;
#172 = APPROVAL_PERSON_ORGANIZATION ( #247, #236, #19 ) ;
#173 = PERSON_AND_ORGANIZATION ( #27, #57 ) ;
#174 = VERTEX_POINT ( 'NONE', #217 ) ;
#175 = DIRECTION ( 'NONE',  ( 0.000000000000000000, 0.000000000000000000, 1.000000000000000000 ) ) ;
#176 = AXIS2_PLACEMENT_3D ( 'NONE', #77, #184, #201 ) ;
#177 = EDGE_CURVE ( 'NONE', #170, #126, #154, .T. ) ;
#178 = DIRECTION ( 'NONE',  ( 6.123233995736766036E-17, 1.000000000000000000, 0.000000000000000000 ) ) ;
#179 = PLANE ( 'NONE',  #80 ) ;
#180 = AXIS2_PLACEMENT_3D ( 'NONE', #214, #250, #119 ) ;
#181 = EDGE_CURVE ( 'NONE', #174, #246, #223, .T. ) ;
#182 = CARTESIAN_POINT ( 'NONE',  ( 0.000000000000000000, 0.000000000000000000, 0.000000000000000000 ) ) ;
#183 = DIRECTION ( 'NONE',  ( 0.000000000000000000, 0.000000000000000000, -1.000000000000000000 ) ) ;
#184 = DIRECTION ( 'NONE',  ( 0.000000000000000000, 0.000000000000000000, 1.000000000000000000 ) ) ;
#185 = APPROVAL_DATE_TIME ( #90, #236 ) ;
#186 = LOCAL_TIME ( 10, 26, 6.000000000000000000, #228 ) ;
#187 = CIRCLE ( 'NONE', #229, 51.13000000000000256 ) ;
#188 = EDGE_LOOP ( 'NONE', ( #67, #128 ) ) ;
#189 = DATE_AND_TIME ( #248, #186 ) ;
#190 = ORIENTED_EDGE ( 'NONE', *, *, #14, .T. ) ;
#191 = APPLICATION_CONTEXT ( 'configuration controlled 3d designs of mechanical parts and assemblies' ) ;
#192 = EDGE_LOOP ( 'NONE', ( #232, #33, #130, #127 ) ) ;
#193 = TOROIDAL_SURFACE ( 'NONE', #104, 152.5000000000000000, 57.15000000000000568 ) ;
#194 = DIRECTION ( 'NONE',  ( 6.123233995736766036E-17, 1.000000000000000000, 0.000000000000000000 ) ) ;
#195 = CARTESIAN_POINT ( 'NONE',  ( -209.6500000000000057, 1.283736007206212894E-14, 0.000000000000000000 ) ) ;
#196 = ADVANCED_FACE ( 'NONE', ( #219 ), #193, .T. ) ;
#197 = AXIS2_PLACEMENT_3D ( 'NONE', #252, #53, #20 ) ;
#198 = FACE_BOUND ( 'NONE', #230, .T. ) ;
#199 = APPROVAL_DATE_TIME ( #9, #112 ) ;
#200 = DIRECTION ( 'NONE',  ( -6.123233995736766036E-17, -1.000000000000000000, -0.000000000000000000 ) ) ;
#201 = DIRECTION ( 'NONE',  ( 1.000000000000000000, 0.000000000000000000, 0.000000000000000000 ) ) ;
#202 = CC_DESIGN_APPROVAL ( #236, ( #70 ) ) ;
#203 = CARTESIAN_POINT ( 'NONE',  ( -95.34999999999999432, 5.838503614935005604E-15, -6.998856457127124130E-15 ) ) ;
#204 = CALENDAR_DATE ( 2026, 20, 1 ) ;
#205 = APPROVAL ( #226, 'UNSPECIFIED' ) ;
#206 = ORIENTED_EDGE ( 'NONE', *, *, #85, .F. ) ;
#207 = ORIENTED_EDGE ( 'NONE', *, *, #177, .T. ) ;
#208 = ORIENTED_EDGE ( 'NONE', *, *, #26, .T. ) ;
#209 = EDGE_LOOP ( 'NONE', ( #207, #51 ) ) ;
#210 = EDGE_LOOP ( 'NONE', ( #45, #28 ) ) ;
#211 = TOROIDAL_SURFACE ( 'NONE', #166, 152.5000000000000000, 51.13000000000000256 ) ;
#212 = DIRECTION ( 'NONE',  ( 1.000000000000000000, 0.000000000000000000, 0.000000000000000000 ) ) ;
#213 = CC_DESIGN_PERSON_AND_ORGANIZATION_ASSIGNMENT ( #146, #49, ( #70 ) ) ;
#214 = CARTESIAN_POINT ( 'NONE',  ( 0.000000000000000000, 152.5000000000000000, 0.000000000000000000 ) ) ;
#215 = DIRECTION ( 'NONE',  ( 0.000000000000000000, 0.000000000000000000, 1.000000000000000000 ) ) ;
#216 = APPROVAL_STATUS ( 'not_yet_approved' ) ;
#217 = CARTESIAN_POINT ( 'NONE',  ( -203.6299999999999955, 1.246874138551877672E-14, 0.000000000000000000 ) ) ;
#218 = EDGE_CURVE ( 'NONE', #126, #170, #149, .T. ) ;
#219 = FACE_OUTER_BOUND ( 'NONE', #129, .T. ) ;
#220 = LOCAL_TIME ( 10, 26, 6.000000000000000000, #114 ) ;
#221 = AXIS2_PLACEMENT_3D ( 'NONE', #98, #178, #155 ) ;
#222 = PERSON_AND_ORGANIZATION_ROLE ( 'design_supplier' ) ;
#223 = CIRCLE ( 'NONE', #140, 51.13000000000000256 ) ;
#224 = AXIS2_PLACEMENT_3D ( 'NONE', #58, #161, #37 ) ;
#225 = FACE_OUTER_BOUND ( 'NONE', #209, .T. ) ;
#226 = APPROVAL_STATUS ( 'not_yet_approved' ) ;
#227 = SECURITY_CLASSIFICATION ( '', '', #144 ) ;
#228 = COORDINATED_UNIVERSAL_TIME_OFFSET ( 10, 0, .AHEAD. ) ;
#229 = AXIS2_PLACEMENT_3D ( 'NONE', #76, #253, #235 ) ;
#230 = EDGE_LOOP ( 'NONE', ( #31, #113 ) ) ;
#231 = CC_DESIGN_PERSON_AND_ORGANIZATION_ASSIGNMENT ( #173, #88, ( #227 ) ) ;
#232 = ORIENTED_EDGE ( 'NONE', *, *, #95, .F. ) ;
#233 = EDGE_CURVE ( 'NONE', #249, #111, #73, .T. ) ;
#234 = PRODUCT_DEFINITION_SHAPE ( 'NONE', 'NONE',  #133 ) ;
#235 = DIRECTION ( 'NONE',  ( 0.000000000000000000, 0.000000000000000000, -1.000000000000000000 ) ) ;
#236 = APPROVAL ( #69, 'UNSPECIFIED' ) ;
#237 = PERSON_AND_ORGANIZATION ( #27, #57 ) ;
#238 = DIRECTION ( 'NONE',  ( 0.000000000000000000, 0.000000000000000000, 1.000000000000000000 ) ) ;
#239 = LOCAL_TIME ( 10, 26, 6.000000000000000000, #16 ) ;
#240 = CARTESIAN_POINT ( 'NONE',  ( -152.5000000000000000, 9.337931843498567669E-15, 0.000000000000000000 ) ) ;
#241 = APPROVAL_ROLE ( '' ) ;
#242 = AXIS2_PLACEMENT_3D ( 'NONE', #121, #125, #183 ) ;
#243 = APPLICATION_CONTEXT ( 'configuration controlled 3d designs of mechanical parts and assemblies' ) ;
#244 = DIRECTION ( 'NONE',  ( 1.000000000000000000, 0.000000000000000000, 0.000000000000000000 ) ) ;
#245 = DIRECTION ( 'NONE',  ( 0.000000000000000000, 0.000000000000000000, 1.000000000000000000 ) ) ;
#246 = VERTEX_POINT ( 'NONE', #158 ) ;
#247 = PERSON_AND_ORGANIZATION ( #27, #57 ) ;
#248 = CALENDAR_DATE ( 2026, 20, 1 ) ;
#249 = VERTEX_POINT ( 'NONE', #203 ) ;
#250 = DIRECTION ( 'NONE',  ( -1.000000000000000000, -0.000000000000000000, -0.000000000000000000 ) ) ;
#251 = EDGE_CURVE ( 'NONE', #87, #174, #36, .T. ) ;
#252 = CARTESIAN_POINT ( 'NONE',  ( 0.000000000000000000, 0.000000000000000000, 0.000000000000000000 ) ) ;
#253 = DIRECTION ( 'NONE',  ( -1.000000000000000000, -0.000000000000000000, -0.000000000000000000 ) ) ;
ENDSEC;
END-ISO-10303-21;
