ISO-10303-21;
HEADER;
FILE_DESCRIPTION (( 'STEP AP203' ),
    '1' );
FILE_NAME ('OEM-15-150-316-S_REV_.step',
    '2025-11-20T01:03:33',
    ( '' ),
    ( '' ),
    'SwSTEP 2.0',
    'SolidWorks 2025',
    '' );
FILE_SCHEMA (( 'CONFIG_CONTROL_DESIGN' ));
ENDSEC;

DATA;
#1 = PRODUCT_DEFINITION_SHAPE ( 'NONE', 'NONE',  #50 ) ;
#2 =( NAMED_UNIT ( * ) PLANE_ANGLE_UNIT ( ) SI_UNIT ( $, .RADIAN. ) );
#3 = CARTESIAN_POINT ( 'NONE',  ( -13.50000000000000000, 0.000000000000000000, 34.00000000000000000 ) ) ;
#4 = APPROVAL_DATE_TIME ( #166, #165 ) ;
#5 = ADVANCED_FACE ( 'NONE', ( #141 ), #24, .T. ) ;
#6 = DIRECTION ( 'NONE',  ( -0.000000000000000000, -0.000000000000000000, 1.000000000000000000 ) ) ;
#7 = CC_DESIGN_PERSON_AND_ORGANIZATION_ASSIGNMENT ( #52, #19, ( #50 ) ) ;
#8 = DIRECTION ( 'NONE',  ( -0.000000000000000000, -0.000000000000000000, -1.000000000000000000 ) ) ;
#9 = EDGE_LOOP ( 'NONE', ( #320, #13 ) ) ;
#10 = CARTESIAN_POINT ( 'NONE',  ( 9.500000000000000000, 0.000000000000000000, 0.000000000000000000 ) ) ;
#11 = ORIENTED_EDGE ( 'NONE', *, *, #148, .T. ) ;
#12 = DIRECTION ( 'NONE',  ( -0.000000000000000000, -0.000000000000000000, 1.000000000000000000 ) ) ;
#13 = ORIENTED_EDGE ( 'NONE', *, *, #71, .T. ) ;
#14 = CARTESIAN_POINT ( 'NONE',  ( -13.50000000000000000, 0.000000000000000000, 1.000000000000000888 ) ) ;
#15 = VERTEX_POINT ( 'NONE', #219 ) ;
#16 = VERTEX_POINT ( 'NONE', #172 ) ;
#17 = DIRECTION ( 'NONE',  ( 1.000000000000000000, 0.000000000000000000, 0.000000000000000000 ) ) ;
#18 = EDGE_CURVE ( 'NONE', #16, #345, #238, .T. ) ;
#19 = PERSON_AND_ORGANIZATION_ROLE ( 'creator' ) ;
#20 = LOCAL_TIME ( 12, 3, 33.00000000000000000, #23 ) ;
#21 = APPROVAL_DATE_TIME ( #349, #269 ) ;
#22 = PERSON_AND_ORGANIZATION ( #328, #304 ) ;
#23 = COORDINATED_UNIVERSAL_TIME_OFFSET ( 10, 0, .AHEAD. ) ;
#24 = CYLINDRICAL_SURFACE ( 'NONE', #319, 13.50000000000000000 ) ;
#25 = PERSON_AND_ORGANIZATION_ROLE ( 'design_supplier' ) ;
#26 = DIRECTION ( 'NONE',  ( 1.000000000000000000, 0.000000000000000000, 0.000000000000000000 ) ) ;
#27 = CIRCLE ( 'NONE', #58, 13.50000000000000000 ) ;
#28 = CARTESIAN_POINT ( 'NONE',  ( 12.50000000000001599, 1.592040838891560279E-15, 34.00000000000000000 ) ) ;
#29 = EDGE_CURVE ( 'NONE', #92, #287, #30, .T. ) ;
#30 = LINE ( 'NONE', #10, #267 ) ;
#31 = FACE_OUTER_BOUND ( 'NONE', #271, .T. ) ;
#32 = ORIENTED_EDGE ( 'NONE', *, *, #42, .T. ) ;
#33 = DIRECTION ( 'NONE',  ( 1.000000000000000000, 0.000000000000000000, 0.000000000000000000 ) ) ;
#34 = ORIENTED_EDGE ( 'NONE', *, *, #273, .F. ) ;
#35 = ADVANCED_FACE ( 'NONE', ( #31 ), #274, .T. ) ;
#36 = LINE ( 'NONE', #184, #140 ) ;
#37 = VERTEX_POINT ( 'NONE', #161 ) ;
#38 = ADVANCED_FACE ( 'NONE', ( #84, #213 ), #215, .F. ) ;
#39 = DIRECTION ( 'NONE',  ( 1.000000000000000000, 0.000000000000000000, -0.000000000000000000 ) ) ;
#40 = ORIENTED_EDGE ( 'NONE', *, *, #160, .T. ) ;
#41 = DIRECTION ( 'NONE',  ( -0.7071067811865439090, 0.000000000000000000, -0.7071067811865512365 ) ) ;
#42 = EDGE_CURVE ( 'NONE', #178, #16, #240, .T. ) ;
#43 = LINE ( 'NONE', #255, #337 ) ;
#44 = CC_DESIGN_PERSON_AND_ORGANIZATION_ASSIGNMENT ( #186, #272, ( #194 ) ) ;
#45 = COORDINATED_UNIVERSAL_TIME_OFFSET ( 10, 0, .AHEAD. ) ;
#46 = CIRCLE ( 'NONE', #226, 12.50000000000001599 ) ;
#47 = CONICAL_SURFACE ( 'NONE', #297, 12.50000000000001599, 0.7853981633974431720 ) ;
#48 = ADVANCED_BREP_SHAPE_REPRESENTATION ( 'OEM-15-150-316-S_REV_', ( #74, #341 ), #116 ) ;
#49 = CALENDAR_DATE ( 2025, 20, 11 ) ;
#50 = PRODUCT_DEFINITION ( 'UNKNOWN', '', #111, #101 ) ;
#51 = DIRECTION ( 'NONE',  ( 1.000000000000000000, 0.000000000000000000, 0.000000000000000000 ) ) ;
#52 = PERSON_AND_ORGANIZATION ( #328, #304 ) ;
#53 = CIRCLE ( 'NONE', #254, 13.50000000000000000 ) ;
#54 = CYLINDRICAL_SURFACE ( 'NONE', #93, 13.50000000000000000 ) ;
#55 = AXIS2_PLACEMENT_3D ( 'NONE', #179, #286, #39 ) ;
#56 = EDGE_CURVE ( 'NONE', #92, #37, #336, .T. ) ;
#57 = DIRECTION ( 'NONE',  ( 1.000000000000000000, 0.000000000000000000, 0.000000000000000000 ) ) ;
#58 = AXIS2_PLACEMENT_3D ( 'NONE', #203, #231, #177 ) ;
#59 = DIRECTION ( 'NONE',  ( -0.000000000000000000, -0.000000000000000000, -1.000000000000000000 ) ) ;
#60 = CLOSED_SHELL ( 'NONE', ( #326, #261, #35, #5, #91, #329, #38, #108, #99, #322 ) ) ;
#61 = DIRECTION ( 'NONE',  ( -1.000000000000000000, 0.000000000000000000, 0.000000000000000000 ) ) ;
#62 = EDGE_LOOP ( 'NONE', ( #311, #339, #199, #260 ) ) ;
#63 = CARTESIAN_POINT ( 'NONE',  ( 0.000000000000000000, 0.000000000000000000, 34.00000000000000000 ) ) ;
#64 = EDGE_LOOP ( 'NONE', ( #126, #207 ) ) ;
#65 = EDGE_CURVE ( 'NONE', #37, #15, #277, .T. ) ;
#66 = FACE_BOUND ( 'NONE', #69, .T. ) ;
#67 = ORIENTED_EDGE ( 'NONE', *, *, #190, .F. ) ;
#68 = DIRECTION ( 'NONE',  ( -0.000000000000000000, -0.000000000000000000, 1.000000000000000000 ) ) ;
#69 = EDGE_LOOP ( 'NONE', ( #34, #330 ) ) ;
#70 = CARTESIAN_POINT ( 'NONE',  ( 9.500000000000000000, 0.000000000000000000, 34.00000000000000000 ) ) ;
#71 = EDGE_CURVE ( 'NONE', #87, #175, #133, .T. ) ;
#72 = CARTESIAN_POINT ( 'NONE',  ( 12.50000000000001599, 1.530808498934193493E-15, 34.00000000000000000 ) ) ;
#73 = AXIS2_PLACEMENT_3D ( 'NONE', #248, #81, #196 ) ;
#74 = MANIFOLD_SOLID_BREP ( 'Cut-Extrude1', #60 ) ;
#75 = APPROVAL_ROLE ( '' ) ;
#76 = VECTOR ( 'NONE', #8, 1000.000000000000000 ) ;
#77 = APPLICATION_CONTEXT ( 'configuration controlled 3d designs of mechanical parts and assemblies' ) ;
#78 = APPROVAL_STATUS ( 'not_yet_approved' ) ;
#79 = DIRECTION ( 'NONE',  ( 1.000000000000000000, 0.000000000000000000, -0.000000000000000000 ) ) ;
#80 = DATE_AND_TIME ( #49, #20 ) ;
#81 = DIRECTION ( 'NONE',  ( 0.000000000000000000, 0.000000000000000000, 1.000000000000000000 ) ) ;
#82 = ORIENTED_EDGE ( 'NONE', *, *, #210, .F. ) ;
#83 = APPROVAL_ROLE ( '' ) ;
#84 = FACE_BOUND ( 'NONE', #289, .T. ) ;
#85 = APPROVAL_PERSON_ORGANIZATION ( #22, #331, #234 ) ;
#86 = CARTESIAN_POINT ( 'NONE',  ( 0.000000000000000000, 0.000000000000000000, 0.000000000000000000 ) ) ;
#87 = VERTEX_POINT ( 'NONE', #192 ) ;
#88 = ORIENTED_EDGE ( 'NONE', *, *, #246, .T. ) ;
#89 = AXIS2_PLACEMENT_3D ( 'NONE', #142, #114, #79 ) ;
#90 = LINE ( 'NONE', #317, #120 ) ;
#91 = ADVANCED_FACE ( 'NONE', ( #308 ), #54, .T. ) ;
#92 = VERTEX_POINT ( 'NONE', #170 ) ;
#93 = AXIS2_PLACEMENT_3D ( 'NONE', #112, #59, #61 ) ;
#94 = LOCAL_TIME ( 12, 3, 33.00000000000000000, #237 ) ;
#95 = DIRECTION ( 'NONE',  ( -1.000000000000000000, 0.000000000000000000, 0.000000000000000000 ) ) ;
#96 = VERTEX_POINT ( 'NONE', #28 ) ;
#97 = CARTESIAN_POINT ( 'NONE',  ( 0.000000000000000000, 0.000000000000000000, 34.00000000000000000 ) ) ;
#98 = ORIENTED_EDGE ( 'NONE', *, *, #241, .F. ) ;
#99 = ADVANCED_FACE ( 'NONE', ( #305 ), #242, .T. ) ;
#100 = FACE_OUTER_BOUND ( 'NONE', #149, .T. ) ;
#101 = DESIGN_CONTEXT ( 'detailed design', #168, 'design' ) ;
#102 = DIRECTION ( 'NONE',  ( 1.000000000000000000, 0.000000000000000000, 0.000000000000000000 ) ) ;
#103 = APPROVAL_STATUS ( 'not_yet_approved' ) ;
#104 = CIRCLE ( 'NONE', #303, 13.50000000000000000 ) ;
#105 = DATE_TIME_ROLE ( 'creation_date' ) ;
#106 = APPROVAL_DATE_TIME ( #80, #331 ) ;
#107 = DIRECTION ( 'NONE',  ( -1.000000000000000000, 0.000000000000000000, 0.000000000000000000 ) ) ;
#108 = ADVANCED_FACE ( 'NONE', ( #307 ), #340, .T. ) ;
#109 = PERSON_AND_ORGANIZATION ( #328, #304 ) ;
#110 = AXIS2_PLACEMENT_3D ( 'NONE', #155, #229, #344 ) ;
#111 = PRODUCT_DEFINITION_FORMATION_WITH_SPECIFIED_SOURCE ( 'ANY', '', #194, .NOT_KNOWN. ) ;
#112 = CARTESIAN_POINT ( 'NONE',  ( 0.000000000000000000, 0.000000000000000000, 34.00000000000000000 ) ) ;
#113 = DIRECTION ( 'NONE',  ( -0.000000000000000000, -0.000000000000000000, 1.000000000000000000 ) ) ;
#114 = DIRECTION ( 'NONE',  ( 0.000000000000000000, 0.000000000000000000, 1.000000000000000000 ) ) ;
#115 = EDGE_LOOP ( 'NONE', ( #315, #144, #224, #313 ) ) ;
#116 =( GEOMETRIC_REPRESENTATION_CONTEXT ( 3 ) GLOBAL_UNCERTAINTY_ASSIGNED_CONTEXT ( ( #293 ) ) GLOBAL_UNIT_ASSIGNED_CONTEXT ( ( #300, #2, #323 ) ) REPRESENTATION_CONTEXT ( 'NONE', 'WORKASPACE' ) );
#117 = EDGE_CURVE ( 'NONE', #96, #204, #46, .T. ) ;
#118 = CARTESIAN_POINT ( 'NONE',  ( 0.000000000000000000, 0.000000000000000000, 1.000000000000000888 ) ) ;
#119 = AXIS2_PLACEMENT_3D ( 'NONE', #321, #278, #174 ) ;
#120 = VECTOR ( 'NONE', #151, 1000.000000000000114 ) ;
#121 = ORIENTED_EDGE ( 'NONE', *, *, #29, .T. ) ;
#122 = DIRECTION ( 'NONE',  ( 1.000000000000000000, 0.000000000000000000, 0.000000000000000000 ) ) ;
#123 = ORIENTED_EDGE ( 'NONE', *, *, #246, .F. ) ;
#124 = CIRCLE ( 'NONE', #327, 12.49999999999999289 ) ;
#125 = DIRECTION ( 'NONE',  ( -0.000000000000000000, -0.000000000000000000, 1.000000000000000000 ) ) ;
#126 = ORIENTED_EDGE ( 'NONE', *, *, #169, .T. ) ;
#127 = EDGE_CURVE ( 'NONE', #175, #87, #124, .T. ) ;
#128 = DIRECTION ( 'NONE',  ( 0.000000000000000000, 0.000000000000000000, 1.000000000000000000 ) ) ;
#129 = DIRECTION ( 'NONE',  ( 0.7071067811865439090, 8.659560562354889717E-17, -0.7071067811865512365 ) ) ;
#130 = AXIS2_PLACEMENT_3D ( 'NONE', #299, #276, #26 ) ;
#131 = COORDINATED_UNIVERSAL_TIME_OFFSET ( 10, 0, .AHEAD. ) ;
#132 = SHAPE_DEFINITION_REPRESENTATION ( #1, #48 ) ;
#133 = CIRCLE ( 'NONE', #206, 12.49999999999999289 ) ;
#134 = MECHANICAL_CONTEXT ( 'NONE', #77, 'mechanical' ) ;
#135 = DATE_AND_TIME ( #189, #94 ) ;
#136 = SECURITY_CLASSIFICATION_LEVEL ( 'unclassified' ) ;
#137 = AXIS2_PLACEMENT_3D ( 'NONE', #279, #143, #220 ) ;
#138 = AXIS2_PLACEMENT_3D ( 'NONE', #147, #223, #102 ) ;
#139 = CARTESIAN_POINT ( 'NONE',  ( 0.000000000000000000, 0.000000000000000000, 34.00000000000000000 ) ) ;
#140 = VECTOR ( 'NONE', #225, 1000.000000000000000 ) ;
#141 = FACE_OUTER_BOUND ( 'NONE', #115, .T. ) ;
#142 = CARTESIAN_POINT ( 'NONE',  ( 0.000000000000000000, 0.000000000000000000, 0.000000000000000000 ) ) ;
#143 = DIRECTION ( 'NONE',  ( 0.000000000000000000, 0.000000000000000000, -1.000000000000000000 ) ) ;
#144 = ORIENTED_EDGE ( 'NONE', *, *, #195, .T. ) ;
#145 = DIRECTION ( 'NONE',  ( 1.000000000000000000, 0.000000000000000000, 0.000000000000000000 ) ) ;
#146 = ORIENTED_EDGE ( 'NONE', *, *, #190, .T. ) ;
#147 = CARTESIAN_POINT ( 'NONE',  ( 0.000000000000000000, 0.000000000000000000, 34.00000000000000000 ) ) ;
#148 = EDGE_CURVE ( 'NONE', #37, #92, #218, .T. ) ;
#149 = EDGE_LOOP ( 'NONE', ( #256, #180, #343, #212 ) ) ;
#150 = SECURITY_CLASSIFICATION ( '', '', #136 ) ;
#151 = DIRECTION ( 'NONE',  ( -0.7071067811865500152, 8.659560562354962440E-17, 0.7071067811865451302 ) ) ;
#152 = CC_DESIGN_PERSON_AND_ORGANIZATION_ASSIGNMENT ( #235, #164, ( #111 ) ) ;
#153 = ORIENTED_EDGE ( 'NONE', *, *, #56, .F. ) ;
#154 = CARTESIAN_POINT ( 'NONE',  ( 13.50000000000000000, 0.000000000000000000, 1.000000000000000888 ) ) ;
#155 = CARTESIAN_POINT ( 'NONE',  ( 0.000000000000000000, 0.000000000000000000, 0.000000000000000000 ) ) ;
#156 = CC_DESIGN_APPROVAL ( #331, ( #111 ) ) ;
#157 = DATE_AND_TIME ( #239, #236 ) ;
#158 = DIRECTION ( 'NONE',  ( 0.000000000000000000, 0.000000000000000000, 1.000000000000000000 ) ) ;
#159 = CALENDAR_DATE ( 2025, 20, 11 ) ;
#160 = EDGE_CURVE ( 'NONE', #204, #16, #43, .T. ) ;
#161 = CARTESIAN_POINT ( 'NONE',  ( -9.500000000000000000, 1.163414459189985485E-15, 0.000000000000000000 ) ) ;
#162 = CIRCLE ( 'NONE', #306, 9.500000000000000000 ) ;
#163 = ORIENTED_EDGE ( 'NONE', *, *, #169, .F. ) ;
#164 = PERSON_AND_ORGANIZATION_ROLE ( 'creator' ) ;
#165 = APPROVAL ( #78, 'UNSPECIFIED' ) ;
#166 = DATE_AND_TIME ( #159, #188 ) ;
#167 = VECTOR ( 'NONE', #262, 1000.000000000000114 ) ;
#168 = APPLICATION_CONTEXT ( 'configuration controlled 3d designs of mechanical parts and assemblies' ) ;
#169 = EDGE_CURVE ( 'NONE', #204, #96, #247, .T. ) ;
#170 = CARTESIAN_POINT ( 'NONE',  ( 9.500000000000000000, 0.000000000000000000, 0.000000000000000000 ) ) ;
#171 = DIRECTION ( 'NONE',  ( -0.000000000000000000, -0.000000000000000000, -1.000000000000000000 ) ) ;
#172 = CARTESIAN_POINT ( 'NONE',  ( -13.50000000000000000, 0.000000000000000000, 33.00000000000000711 ) ) ;
#173 = EDGE_CURVE ( 'NONE', #87, #345, #90, .T. ) ;
#174 = DIRECTION ( 'NONE',  ( 1.000000000000000000, 0.000000000000000000, 0.000000000000000000 ) ) ;
#175 = VERTEX_POINT ( 'NONE', #185 ) ;
#176 = CC_DESIGN_SECURITY_CLASSIFICATION ( #150, ( #111 ) ) ;
#177 = DIRECTION ( 'NONE',  ( 1.000000000000000000, 0.000000000000000000, 0.000000000000000000 ) ) ;
#178 = VERTEX_POINT ( 'NONE', #259 ) ;
#179 = CARTESIAN_POINT ( 'NONE',  ( 0.000000000000000000, 0.000000000000000000, 34.00000000000000000 ) ) ;
#180 = ORIENTED_EDGE ( 'NONE', *, *, #241, .T. ) ;
#181 = CARTESIAN_POINT ( 'NONE',  ( 0.000000000000000000, 0.000000000000000000, 0.000000000000000000 ) ) ;
#182 = EDGE_LOOP ( 'NONE', ( #201, #153, #121, #258 ) ) ;
#183 = LOCAL_TIME ( 12, 3, 33.00000000000000000, #211 ) ;
#184 = CARTESIAN_POINT ( 'NONE',  ( 13.50000000000000000, 1.653273178848926867E-15, 34.00000000000000000 ) ) ;
#185 = CARTESIAN_POINT ( 'NONE',  ( 12.49999999999999289, 0.000000000000000000, 0.000000000000000000 ) ) ;
#186 = PERSON_AND_ORGANIZATION ( #328, #304 ) ;
#187 = CC_DESIGN_DATE_AND_TIME_ASSIGNMENT ( #135, #265, ( #150 ) ) ;
#188 = LOCAL_TIME ( 12, 3, 33.00000000000000000, #45 ) ;
#189 = CALENDAR_DATE ( 2025, 20, 11 ) ;
#190 = EDGE_CURVE ( 'NONE', #175, #309, #342, .T. ) ;
#191 = DIRECTION ( 'NONE',  ( 1.000000000000000000, 0.000000000000000000, 0.000000000000000000 ) ) ;
#192 = CARTESIAN_POINT ( 'NONE',  ( -12.49999999999999289, 1.592040838891558701E-15, 0.000000000000000000 ) ) ;
#193 = APPROVAL_PERSON_ORGANIZATION ( #296, #269, #83 ) ;
#194 = PRODUCT ( 'OEM-15-150-316-S_REV_', 'OEM-15-150-316-S_REV_', '', ( #134 ) ) ;
#195 = EDGE_CURVE ( 'NONE', #178, #309, #36, .T. ) ;
#196 = DIRECTION ( 'NONE',  ( 1.000000000000000000, 0.000000000000000000, 0.000000000000000000 ) ) ;
#197 = DIRECTION ( 'NONE',  ( -0.000000000000000000, -0.000000000000000000, -1.000000000000000000 ) ) ;
#198 = DIRECTION ( 'NONE',  ( -0.000000000000000000, -0.000000000000000000, -1.000000000000000000 ) ) ;
#199 = ORIENTED_EDGE ( 'NONE', *, *, #333, .T. ) ;
#200 = CYLINDRICAL_SURFACE ( 'NONE', #295, 9.500000000000000000 ) ;
#201 = ORIENTED_EDGE ( 'NONE', *, *, #65, .F. ) ;
#202 = CC_DESIGN_APPROVAL ( #165, ( #50 ) ) ;
#203 = CARTESIAN_POINT ( 'NONE',  ( 0.000000000000000000, 0.000000000000000000, 33.00000000000000711 ) ) ;
#204 = VERTEX_POINT ( 'NONE', #263 ) ;
#205 = CARTESIAN_POINT ( 'NONE',  ( 0.000000000000000000, 0.000000000000000000, 1.000000000000000888 ) ) ;
#206 = AXIS2_PLACEMENT_3D ( 'NONE', #334, #198, #51 ) ;
#207 = ORIENTED_EDGE ( 'NONE', *, *, #117, .T. ) ;
#208 = LINE ( 'NONE', #72, #346 ) ;
#209 = FACE_OUTER_BOUND ( 'NONE', #64, .T. ) ;
#210 = EDGE_CURVE ( 'NONE', #309, #345, #53, .T. ) ;
#211 = COORDINATED_UNIVERSAL_TIME_OFFSET ( 10, 0, .AHEAD. ) ;
#212 = ORIENTED_EDGE ( 'NONE', *, *, #160, .F. ) ;
#213 = FACE_OUTER_BOUND ( 'NONE', #9, .T. ) ;
#214 = APPLICATION_PROTOCOL_DEFINITION ( 'international standard', 'config_control_design', 1994, #168 ) ;
#215 = PLANE ( 'NONE',  #89 ) ;
#216 = ORIENTED_EDGE ( 'NONE', *, *, #56, .T. ) ;
#217 = PERSON_AND_ORGANIZATION ( #328, #304 ) ;
#218 = CIRCLE ( 'NONE', #110, 9.500000000000000000 ) ;
#219 = CARTESIAN_POINT ( 'NONE',  ( -9.500000000000000000, 1.163414459189985485E-15, 34.00000000000000000 ) ) ;
#220 = DIRECTION ( 'NONE',  ( -1.000000000000000000, 0.000000000000000000, 0.000000000000000000 ) ) ;
#221 = CARTESIAN_POINT ( 'NONE',  ( -9.500000000000000000, 1.163414459189985485E-15, 0.000000000000000000 ) ) ;
#222 = EDGE_LOOP ( 'NONE', ( #280, #283, #146, #123 ) ) ;
#223 = DIRECTION ( 'NONE',  ( 0.000000000000000000, 0.000000000000000000, 1.000000000000000000 ) ) ;
#224 = ORIENTED_EDGE ( 'NONE', *, *, #210, .T. ) ;
#225 = DIRECTION ( 'NONE',  ( -0.000000000000000000, -0.000000000000000000, -1.000000000000000000 ) ) ;
#226 = AXIS2_PLACEMENT_3D ( 'NONE', #139, #252, #57 ) ;
#227 = AXIS2_PLACEMENT_3D ( 'NONE', #181, #12, #288 ) ;
#228 = ORIENTED_EDGE ( 'NONE', *, *, #173, .T. ) ;
#229 = DIRECTION ( 'NONE',  ( 0.000000000000000000, 0.000000000000000000, 1.000000000000000000 ) ) ;
#230 = ORIENTED_EDGE ( 'NONE', *, *, #42, .F. ) ;
#231 = DIRECTION ( 'NONE',  ( 0.000000000000000000, 0.000000000000000000, -1.000000000000000000 ) ) ;
#232 = DIRECTION ( 'NONE',  ( -0.000000000000000000, -0.000000000000000000, 1.000000000000000000 ) ) ;
#233 = CALENDAR_DATE ( 2025, 20, 11 ) ;
#234 = APPROVAL_ROLE ( '' ) ;
#235 = PERSON_AND_ORGANIZATION ( #328, #304 ) ;
#236 = LOCAL_TIME ( 12, 3, 33.00000000000000000, #131 ) ;
#237 = COORDINATED_UNIVERSAL_TIME_OFFSET ( 10, 0, .AHEAD. ) ;
#238 = LINE ( 'NONE', #3, #76 ) ;
#239 = CALENDAR_DATE ( 2025, 20, 11 ) ;
#240 = CIRCLE ( 'NONE', #292, 13.50000000000000000 ) ;
#241 = EDGE_CURVE ( 'NONE', #96, #178, #208, .T. ) ;
#242 = CONICAL_SURFACE ( 'NONE', #137, 12.50000000000001599, 0.7853981633974431720 ) ;
#243 = CC_DESIGN_PERSON_AND_ORGANIZATION_ASSIGNMENT ( #217, #268, ( #150 ) ) ;
#244 = CC_DESIGN_APPROVAL ( #269, ( #150 ) ) ;
#245 = CIRCLE ( 'NONE', #138, 9.500000000000000000 ) ;
#246 = EDGE_CURVE ( 'NONE', #345, #309, #104, .T. ) ;
#247 = CIRCLE ( 'NONE', #275, 12.50000000000001599 ) ;
#248 = CARTESIAN_POINT ( 'NONE',  ( 0.000000000000000000, 0.000000000000000000, 0.000000000000000000 ) ) ;
#249 = CC_DESIGN_PERSON_AND_ORGANIZATION_ASSIGNMENT ( #298, #25, ( #111 ) ) ;
#250 = CARTESIAN_POINT ( 'NONE',  ( 0.000000000000000000, 0.000000000000000000, 33.00000000000000711 ) ) ;
#251 = ORIENTED_EDGE ( 'NONE', *, *, #195, .F. ) ;
#252 = DIRECTION ( 'NONE',  ( 0.000000000000000000, 0.000000000000000000, 1.000000000000000000 ) ) ;
#253 = EDGE_LOOP ( 'NONE', ( #98, #163, #40, #230 ) ) ;
#254 = AXIS2_PLACEMENT_3D ( 'NONE', #118, #125, #17 ) ;
#255 = CARTESIAN_POINT ( 'NONE',  ( -12.50000000000001599, 0.000000000000000000, 34.00000000000000000 ) ) ;
#256 = ORIENTED_EDGE ( 'NONE', *, *, #117, .F. ) ;
#257 = DIRECTION ( 'NONE',  ( 0.000000000000000000, 0.000000000000000000, 1.000000000000000000 ) ) ;
#258 = ORIENTED_EDGE ( 'NONE', *, *, #273, .T. ) ;
#259 = CARTESIAN_POINT ( 'NONE',  ( 13.50000000000000000, 1.653273178848926867E-15, 33.00000000000000711 ) ) ;
#260 = ORIENTED_EDGE ( 'NONE', *, *, #29, .F. ) ;
#261 = ADVANCED_FACE ( 'NONE', ( #100 ), #47, .T. ) ;
#262 = DIRECTION ( 'NONE',  ( 0.7071067811865500152, 0.000000000000000000, 0.7071067811865451302 ) ) ;
#263 = CARTESIAN_POINT ( 'NONE',  ( -12.50000000000001599, 0.000000000000000000, 34.00000000000000000 ) ) ;
#264 = APPROVAL_PERSON_ORGANIZATION ( #109, #165, #75 ) ;
#265 = DATE_TIME_ROLE ( 'classification_date' ) ;
#266 = APPLICATION_PROTOCOL_DEFINITION ( 'international standard', 'config_control_design', 1994, #77 ) ;
#267 = VECTOR ( 'NONE', #6, 1000.000000000000000 ) ;
#268 = PERSON_AND_ORGANIZATION_ROLE ( 'classification_officer' ) ;
#269 = APPROVAL ( #325, 'UNSPECIFIED' ) ;
#270 = EDGE_LOOP ( 'NONE', ( #251, #32, #335, #88 ) ) ;
#271 = EDGE_LOOP ( 'NONE', ( #332, #228, #82, #67 ) ) ;
#272 = PERSON_AND_ORGANIZATION_ROLE ( 'design_owner' ) ;
#273 = EDGE_CURVE ( 'NONE', #287, #15, #245, .T. ) ;
#274 = CONICAL_SURFACE ( 'NONE', #119, 13.50000000000000000, 0.7853981633974517207 ) ;
#275 = AXIS2_PLACEMENT_3D ( 'NONE', #291, #128, #290 ) ;
#276 = DIRECTION ( 'NONE',  ( -0.000000000000000000, -0.000000000000000000, 1.000000000000000000 ) ) ;
#277 = LINE ( 'NONE', #221, #285 ) ;
#278 = DIRECTION ( 'NONE',  ( -0.000000000000000000, -0.000000000000000000, 1.000000000000000000 ) ) ;
#279 = CARTESIAN_POINT ( 'NONE',  ( 0.000000000000000000, 0.000000000000000000, 34.00000000000000000 ) ) ;
#280 = ORIENTED_EDGE ( 'NONE', *, *, #173, .F. ) ;
#281 = EDGE_CURVE ( 'NONE', #16, #178, #27, .T. ) ;
#282 = DIRECTION ( 'NONE',  ( 1.000000000000000000, 0.000000000000000000, 0.000000000000000000 ) ) ;
#283 = ORIENTED_EDGE ( 'NONE', *, *, #127, .F. ) ;
#284 = PRODUCT_RELATED_PRODUCT_CATEGORY ( 'detail', '', ( #194 ) ) ;
#285 = VECTOR ( 'NONE', #113, 1000.000000000000000 ) ;
#286 = DIRECTION ( 'NONE',  ( 0.000000000000000000, 0.000000000000000000, 1.000000000000000000 ) ) ;
#287 = VERTEX_POINT ( 'NONE', #70 ) ;
#288 = DIRECTION ( 'NONE',  ( 1.000000000000000000, 0.000000000000000000, 0.000000000000000000 ) ) ;
#289 = EDGE_LOOP ( 'NONE', ( #216, #11 ) ) ;
#290 = DIRECTION ( 'NONE',  ( 1.000000000000000000, 0.000000000000000000, 0.000000000000000000 ) ) ;
#291 = CARTESIAN_POINT ( 'NONE',  ( 0.000000000000000000, 0.000000000000000000, 34.00000000000000000 ) ) ;
#292 = AXIS2_PLACEMENT_3D ( 'NONE', #250, #324, #191 ) ;
#293 = UNCERTAINTY_MEASURE_WITH_UNIT (LENGTH_MEASURE( 1.000000000000000082E-05 ), #300, 'distance_accuracy_value', 'NONE');
#294 = DIRECTION ( 'NONE',  ( 1.000000000000000000, 0.000000000000000000, 0.000000000000000000 ) ) ;
#295 = AXIS2_PLACEMENT_3D ( 'NONE', #310, #232, #122 ) ;
#296 = PERSON_AND_ORGANIZATION ( #328, #304 ) ;
#297 = AXIS2_PLACEMENT_3D ( 'NONE', #97, #348, #95 ) ;
#298 = PERSON_AND_ORGANIZATION ( #328, #304 ) ;
#299 = CARTESIAN_POINT ( 'NONE',  ( 0.000000000000000000, 0.000000000000000000, 1.000000000000000888 ) ) ;
#300 =( LENGTH_UNIT ( ) NAMED_UNIT ( * ) SI_UNIT ( .MILLI., .METRE. ) );
#301 = CARTESIAN_POINT ( 'NONE',  ( 0.000000000000000000, 0.000000000000000000, 34.00000000000000000 ) ) ;
#302 = CARTESIAN_POINT ( 'NONE',  ( 0.000000000000000000, 0.000000000000000000, 0.000000000000000000 ) ) ;
#303 = AXIS2_PLACEMENT_3D ( 'NONE', #205, #68, #145 ) ;
#304 = ORGANIZATION ( 'UNSPECIFIED', 'UNSPECIFIED', '' ) ;
#305 = FACE_OUTER_BOUND ( 'NONE', #253, .T. ) ;
#306 = AXIS2_PLACEMENT_3D ( 'NONE', #63, #257, #282 ) ;
#307 = FACE_OUTER_BOUND ( 'NONE', #222, .T. ) ;
#308 = FACE_OUTER_BOUND ( 'NONE', #270, .T. ) ;
#309 = VERTEX_POINT ( 'NONE', #347 ) ;
#310 = CARTESIAN_POINT ( 'NONE',  ( 0.000000000000000000, 0.000000000000000000, 0.000000000000000000 ) ) ;
#311 = ORIENTED_EDGE ( 'NONE', *, *, #148, .F. ) ;
#312 = CYLINDRICAL_SURFACE ( 'NONE', #227, 9.500000000000000000 ) ;
#313 = ORIENTED_EDGE ( 'NONE', *, *, #18, .F. ) ;
#314 = FACE_OUTER_BOUND ( 'NONE', #182, .T. ) ;
#315 = ORIENTED_EDGE ( 'NONE', *, *, #281, .T. ) ;
#316 = CC_DESIGN_DATE_AND_TIME_ASSIGNMENT ( #157, #105, ( #50 ) ) ;
#317 = CARTESIAN_POINT ( 'NONE',  ( -13.50000000000000000, 1.653273178848926867E-15, 1.000000000000000888 ) ) ;
#318 = PLANE ( 'NONE',  #55 ) ;
#319 = AXIS2_PLACEMENT_3D ( 'NONE', #301, #171, #107 ) ;
#320 = ORIENTED_EDGE ( 'NONE', *, *, #127, .T. ) ;
#321 = CARTESIAN_POINT ( 'NONE',  ( 0.000000000000000000, 0.000000000000000000, 1.000000000000000888 ) ) ;
#322 = ADVANCED_FACE ( 'NONE', ( #314 ), #312, .F. ) ;
#323 =( NAMED_UNIT ( * ) SI_UNIT ( $, .STERADIAN. ) SOLID_ANGLE_UNIT ( ) );
#324 = DIRECTION ( 'NONE',  ( 0.000000000000000000, 0.000000000000000000, -1.000000000000000000 ) ) ;
#325 = APPROVAL_STATUS ( 'not_yet_approved' ) ;
#326 = ADVANCED_FACE ( 'NONE', ( #338 ), #200, .F. ) ;
#327 = AXIS2_PLACEMENT_3D ( 'NONE', #86, #197, #33 ) ;
#328 = PERSON ( 'UNSPECIFIED', 'UNSPECIFIED', 'UNSPECIFIED', ('UNSPECIFIED'), ('UNSPECIFIED'), ('UNSPECIFIED') ) ;
#329 = ADVANCED_FACE ( 'NONE', ( #66, #209 ), #318, .T. ) ;
#330 = ORIENTED_EDGE ( 'NONE', *, *, #333, .F. ) ;
#331 = APPROVAL ( #103, 'UNSPECIFIED' ) ;
#332 = ORIENTED_EDGE ( 'NONE', *, *, #71, .F. ) ;
#333 = EDGE_CURVE ( 'NONE', #15, #287, #162, .T. ) ;
#334 = CARTESIAN_POINT ( 'NONE',  ( 0.000000000000000000, 0.000000000000000000, 0.000000000000000000 ) ) ;
#335 = ORIENTED_EDGE ( 'NONE', *, *, #18, .T. ) ;
#336 = CIRCLE ( 'NONE', #73, 9.500000000000000000 ) ;
#337 = VECTOR ( 'NONE', #41, 1000.000000000000000 ) ;
#338 = FACE_OUTER_BOUND ( 'NONE', #62, .T. ) ;
#339 = ORIENTED_EDGE ( 'NONE', *, *, #65, .T. ) ;
#340 = CONICAL_SURFACE ( 'NONE', #130, 13.50000000000000000, 0.7853981633974517207 ) ;
#341 = AXIS2_PLACEMENT_3D ( 'NONE', #302, #158, #294 ) ;
#342 = LINE ( 'NONE', #154, #167 ) ;
#343 = ORIENTED_EDGE ( 'NONE', *, *, #281, .F. ) ;
#344 = DIRECTION ( 'NONE',  ( 1.000000000000000000, 0.000000000000000000, 0.000000000000000000 ) ) ;
#345 = VERTEX_POINT ( 'NONE', #14 ) ;
#346 = VECTOR ( 'NONE', #129, 1000.000000000000000 ) ;
#347 = CARTESIAN_POINT ( 'NONE',  ( 13.50000000000000000, 1.653273178848926867E-15, 1.000000000000000888 ) ) ;
#348 = DIRECTION ( 'NONE',  ( 0.000000000000000000, 0.000000000000000000, -1.000000000000000000 ) ) ;
#349 = DATE_AND_TIME ( #233, #183 ) ;
ENDSEC;
END-ISO-10303-21;
