ISO-10303-21;
HEADER;
FILE_DESCRIPTION (( 'STEP AP203' ),
    '1' );
FILE_NAME ('OEM-1_2-BSPP-3000-316L_REV_.step',
    '2026-03-04T02:57:12',
    ( '' ),
    ( '' ),
    'SwSTEP 2.0',
    'SolidWorks 2025',
    '' );
FILE_SCHEMA (( 'CONFIG_CONTROL_DESIGN' ));
ENDSEC;

DATA;
#1 = CC_DESIGN_PERSON_AND_ORGANIZATION_ASSIGNMENT ( #288, #63, ( #161 ) ) ;
#2 = DIRECTION ( 'NONE',  ( 1.130667979877744367E-15, -2.442490654175353066E-15, -1.000000000000000000 ) ) ;
#3 = CARTESIAN_POINT ( 'NONE',  ( 23.99999999999990052, -2.686575505855851346E-12, -9.499999999997335465 ) ) ;
#4 = VECTOR ( 'NONE', #92, 1000.000000000000000 ) ;
#5 = SECURITY_CLASSIFICATION ( '', '', #238 ) ;
#6 = EDGE_CURVE ( 'NONE', #126, #204, #121, .T. ) ;
#7 = DIRECTION ( 'NONE',  ( 1.000000000000000000, 4.930380657631305173E-32, -1.137978600240781115E-15 ) ) ;
#8 = FACE_OUTER_BOUND ( 'NONE', #81, .T. ) ;
#9 = CARTESIAN_POINT ( 'NONE',  ( 0.000000000000000000, 0.000000000000000000, 0.000000000000000000 ) ) ;
#10 = AXIS2_PLACEMENT_3D ( 'NONE', #179, #111, #295 ) ;
#11 = AXIS2_PLACEMENT_3D ( 'NONE', #82, #53, #244 ) ;
#12 = EDGE_CURVE ( 'NONE', #157, #89, #236, .T. ) ;
#13 = CARTESIAN_POINT ( 'NONE',  ( 23.99999999999992184, -2.641331597885709925E-12, 9.500000000002664535 ) ) ;
#14 = APPLICATION_PROTOCOL_DEFINITION ( 'international standard', 'config_control_design', 1994, #252 ) ;
#15 = FACE_OUTER_BOUND ( 'NONE', #24, .T. ) ;
#16 = ORIENTED_EDGE ( 'NONE', *, *, #131, .F. ) ;
#17 = APPROVAL_STATUS ( 'not_yet_approved' ) ;
#18 = COORDINATED_UNIVERSAL_TIME_OFFSET ( 10, 0, .AHEAD. ) ;
#19 = EDGE_CURVE ( 'NONE', #36, #110, #144, .T. ) ;
#20 = ORIENTED_EDGE ( 'NONE', *, *, #205, .T. ) ;
#21 = AXIS2_PLACEMENT_3D ( 'NONE', #9, #152, #98 ) ;
#22 = APPROVAL ( #102, 'UNSPECIFIED' ) ;
#23 = CARTESIAN_POINT ( 'NONE',  ( 1.479372180313020459E-14, -3.175237850427946443E-14, -12.99999999999994671 ) ) ;
#24 = EDGE_LOOP ( 'NONE', ( #16, #228, #83, #224 ) ) ;
#25 = ORIENTED_EDGE ( 'NONE', *, *, #52, .F. ) ;
#26 = CARTESIAN_POINT ( 'NONE',  ( 0.000000000000000000, 0.000000000000000000, 0.000000000000000000 ) ) ;
#27 = CIRCLE ( 'NONE', #282, 13.99999999999995026 ) ;
#28 = CARTESIAN_POINT ( 'NONE',  ( 1.000000000000000888, 0.000000000000000000, 0.000000000000000000 ) ) ;
#29 = DIRECTION ( 'NONE',  ( 0.7071067811865483499, 1.813697310175708471E-15, 0.7071067811865467956 ) ) ;
#30 = DIRECTION ( 'NONE',  ( -1.000000000000000000, -4.930380657631305173E-32, 1.137978600240781115E-15 ) ) ;
#31 = EDGE_CURVE ( 'NONE', #42, #56, #195, .T. ) ;
#32 = DESIGN_CONTEXT ( 'detailed design', #252, 'design' ) ;
#33 = CALENDAR_DATE ( 2026, 4, 3 ) ;
#34 = CALENDAR_DATE ( 2026, 4, 3 ) ;
#35 = CARTESIAN_POINT ( 'NONE',  ( 1.000000000000016653, -3.419486915845482145E-14, -13.99999999999995026 ) ) ;
#36 = VERTEX_POINT ( 'NONE', #23 ) ;
#37 = PERSON_AND_ORGANIZATION ( #156, #253 ) ;
#38 = LINE ( 'NONE', #79, #298 ) ;
#39 = CALENDAR_DATE ( 2026, 4, 3 ) ;
#40 = APPROVAL_PERSON_ORGANIZATION ( #247, #95, #178 ) ;
#41 = ORIENTED_EDGE ( 'NONE', *, *, #159, .F. ) ;
#42 = VERTEX_POINT ( 'NONE', #113 ) ;
#43 = ORIENTED_EDGE ( 'NONE', *, *, #91, .F. ) ;
#44 = ORIENTED_EDGE ( 'NONE', *, *, #6, .T. ) ;
#45 = VERTEX_POINT ( 'NONE', #208 ) ;
#46 = ADVANCED_BREP_SHAPE_REPRESENTATION ( 'OEM-1_2-BSPP-3000-316L_REV_', ( #101, #168 ), #99 ) ;
#47 = CARTESIAN_POINT ( 'NONE',  ( 0.9999999999999850120, 3.590937467726111352E-14, 13.99999999999995026 ) ) ;
#48 = PRODUCT_DEFINITION_SHAPE ( 'NONE', 'NONE',  #199 ) ;
#49 = DIRECTION ( 'NONE',  ( 1.000000000000000000, 4.930380657631305173E-32, -1.137978600240781115E-15 ) ) ;
#50 = CONICAL_SURFACE ( 'NONE', #112, 13.99999999999995026, 0.7853981633974509435 ) ;
#51 = APPROVAL_STATUS ( 'not_yet_approved' ) ;
#52 = EDGE_CURVE ( 'NONE', #89, #56, #274, .T. ) ;
#53 = DIRECTION ( 'NONE',  ( 1.000000000000000000, 5.608307998055649021E-30, 1.137978600240789398E-15 ) ) ;
#54 = ADVANCED_FACE ( 'NONE', ( #67, #187 ), #278, .T. ) ;
#55 = COORDINATED_UNIVERSAL_TIME_OFFSET ( 10, 0, .AHEAD. ) ;
#56 = VERTEX_POINT ( 'NONE', #189 ) ;
#57 = PERSON_AND_ORGANIZATION ( #156, #253 ) ;
#58 = PRODUCT_RELATED_PRODUCT_CATEGORY ( 'detail', '', ( #161 ) ) ;
#59 = LINE ( 'NONE', #35, #269 ) ;
#60 = EDGE_CURVE ( 'NONE', #157, #42, #73, .T. ) ;
#61 = APPLICATION_PROTOCOL_DEFINITION ( 'international standard', 'config_control_design', 1994, #193 ) ;
#62 = CARTESIAN_POINT ( 'NONE',  ( 23.99999999999989342, -2.697015622740024277E-12, -13.99999999999733724 ) ) ;
#63 = PERSON_AND_ORGANIZATION_ROLE ( 'design_owner' ) ;
#64 = AXIS2_PLACEMENT_3D ( 'NONE', #235, #145, #262 ) ;
#65 = ORIENTED_EDGE ( 'NONE', *, *, #132, .T. ) ;
#66 = ORIENTED_EDGE ( 'NONE', *, *, #91, .T. ) ;
#67 = FACE_OUTER_BOUND ( 'NONE', #258, .T. ) ;
#68 = CARTESIAN_POINT ( 'NONE',  ( 23.99999999999991118, -2.664535259100375697E-12, 2.664535259100375697E-12 ) ) ;
#69 = DIRECTION ( 'NONE',  ( 1.137978600240789398E-15, -2.442490654175353066E-15, -1.000000000000000000 ) ) ;
#70 = FACE_OUTER_BOUND ( 'NONE', #180, .T. ) ;
#71 = ADVANCED_FACE ( 'NONE', ( #192 ), #75, .F. ) ;
#72 = DIRECTION ( 'NONE',  ( -1.000000000000000000, -4.930380657631305173E-32, 1.137978600240781115E-15 ) ) ;
#73 = LINE ( 'NONE', #281, #90 ) ;
#74 = AXIS2_PLACEMENT_3D ( 'NONE', #190, #30, #118 ) ;
#75 = CYLINDRICAL_SURFACE ( 'NONE', #64, 9.499999999999966249 ) ;
#76 = PRODUCT_DEFINITION_FORMATION_WITH_SPECIFIED_SOURCE ( 'ANY', '', #161, .NOT_KNOWN. ) ;
#77 = DIRECTION ( 'NONE',  ( 1.000000000000000000, 4.930380657631305173E-32, -1.137978600240781115E-15 ) ) ;
#78 = PERSON_AND_ORGANIZATION_ROLE ( 'classification_officer' ) ;
#79 = CARTESIAN_POINT ( 'NONE',  ( 23.99999999999989342, -2.630340389941920876E-12, 14.00000000000261480 ) ) ;
#80 = COORDINATED_UNIVERSAL_TIME_OFFSET ( 10, 0, .AHEAD. ) ;
#81 = EDGE_LOOP ( 'NONE', ( #41, #255, #20, #44 ) ) ;
#82 = CARTESIAN_POINT ( 'NONE',  ( 0.000000000000000000, 0.000000000000000000, 0.000000000000000000 ) ) ;
#83 = ORIENTED_EDGE ( 'NONE', *, *, #177, .T. ) ;
#84 = AXIS2_PLACEMENT_3D ( 'NONE', #246, #223, #105 ) ;
#85 = CC_DESIGN_DATE_AND_TIME_ASSIGNMENT ( #120, #240, ( #5 ) ) ;
#86 = EDGE_LOOP ( 'NONE', ( #43, #273, #65, #114 ) ) ;
#87 = ORIENTED_EDGE ( 'NONE', *, *, #31, .T. ) ;
#88 = ADVANCED_FACE ( 'NONE', ( #8 ), #143, .T. ) ;
#89 = VERTEX_POINT ( 'NONE', #3 ) ;
#90 = VECTOR ( 'NONE', #142, 1000.000000000000000 ) ;
#91 = EDGE_CURVE ( 'NONE', #181, #45, #232, .T. ) ;
#92 = DIRECTION ( 'NONE',  ( -1.000000000000000000, -4.930380657631305173E-32, 1.137978600240781115E-15 ) ) ;
#93 = DIRECTION ( 'NONE',  ( -1.000000000000000000, -4.930380657631305173E-32, 1.137978600240781115E-15 ) ) ;
#94 = CIRCLE ( 'NONE', #84, 9.499999999999966249 ) ;
#95 = APPROVAL ( #51, 'UNSPECIFIED' ) ;
#96 = CARTESIAN_POINT ( 'NONE',  ( 23.99999999999991118, -2.664535259100375697E-12, 2.664535259100375697E-12 ) ) ;
#97 = EDGE_CURVE ( 'NONE', #110, #36, #167, .T. ) ;
#98 = DIRECTION ( 'NONE',  ( 1.137978600240789595E-15, -2.442490654175353066E-15, -1.000000000000000000 ) ) ;
#99 =( GEOMETRIC_REPRESENTATION_CONTEXT ( 3 ) GLOBAL_UNCERTAINTY_ASSIGNED_CONTEXT ( ( #279 ) ) GLOBAL_UNIT_ASSIGNED_CONTEXT ( ( #124, #245, #106 ) ) REPRESENTATION_CONTEXT ( 'NONE', 'WORKASPACE' ) );
#100 = DATE_AND_TIME ( #227, #163 ) ;
#101 = MANIFOLD_SOLID_BREP ( 'Chamfer2', #128 ) ;
#102 = APPROVAL_STATUS ( 'not_yet_approved' ) ;
#103 = CARTESIAN_POINT ( 'NONE',  ( 1.000000000000000888, 0.000000000000000000, 0.000000000000000000 ) ) ;
#104 = SHAPE_DEFINITION_REPRESENTATION ( #48, #46 ) ;
#105 = DIRECTION ( 'NONE',  ( 1.095614826932724194E-15, -2.442490654175348728E-15, -1.000000000000000000 ) ) ;
#106 =( NAMED_UNIT ( * ) SI_UNIT ( $, .STERADIAN. ) SOLID_ANGLE_UNIT ( ) );
#107 = DATE_AND_TIME ( #39, #272 ) ;
#108 = ADVANCED_FACE ( 'NONE', ( #216 ), #284, .F. ) ;
#109 = ORIENTED_EDGE ( 'NONE', *, *, #97, .F. ) ;
#110 = VERTEX_POINT ( 'NONE', #237 ) ;
#111 = DIRECTION ( 'NONE',  ( -1.000000000000000000, -4.930380657631305173E-32, 1.137978600240781115E-15 ) ) ;
#112 = AXIS2_PLACEMENT_3D ( 'NONE', #103, #77, #125 ) ;
#113 = CARTESIAN_POINT ( 'NONE',  ( 1.081079670228742079E-14, -2.641331597885348842E-12, 9.500000000000000000 ) ) ;
#114 = ORIENTED_EDGE ( 'NONE', *, *, #205, .F. ) ;
#115 = AXIS2_PLACEMENT_3D ( 'NONE', #212, #72, #162 ) ;
#116 = APPROVAL_PERSON_ORGANIZATION ( #219, #293, #198 ) ;
#117 = CARTESIAN_POINT ( 'NONE',  ( 1.000000000000016653, -2.630340389941679749E-12, 14.00000000000000000 ) ) ;
#118 = DIRECTION ( 'NONE',  ( -1.239088197126295205E-15, 2.442490654175351883E-15, 1.000000000000000000 ) ) ;
#119 = AXIS2_PLACEMENT_3D ( 'NONE', #213, #7, #2 ) ;
#120 = DATE_AND_TIME ( #33, #211 ) ;
#121 = CIRCLE ( 'NONE', #214, 13.99999999999995026 ) ;
#122 = DATE_TIME_ROLE ( 'creation_date' ) ;
#123 = EDGE_CURVE ( 'NONE', #45, #181, #27, .T. ) ;
#124 =( LENGTH_UNIT ( ) NAMED_UNIT ( * ) SI_UNIT ( .MILLI., .METRE. ) );
#125 = DIRECTION ( 'NONE',  ( 1.130667979877744367E-15, -2.442490654175353066E-15, -1.000000000000000000 ) ) ;
#126 = VERTEX_POINT ( 'NONE', #117 ) ;
#127 = MECHANICAL_CONTEXT ( 'NONE', #193, 'mechanical' ) ;
#128 = CLOSED_SHELL ( 'NONE', ( #141, #108, #285, #54, #250, #88, #71, #188 ) ) ;
#129 = CC_DESIGN_APPROVAL ( #293, ( #5 ) ) ;
#130 = VECTOR ( 'NONE', #173, 1000.000000000000000 ) ;
#131 = EDGE_CURVE ( 'NONE', #110, #126, #280, .T. ) ;
#132 = EDGE_CURVE ( 'NONE', #204, #126, #140, .T. ) ;
#133 = ORIENTED_EDGE ( 'NONE', *, *, #177, .F. ) ;
#134 = ORIENTED_EDGE ( 'NONE', *, *, #60, .T. ) ;
#135 = DIRECTION ( 'NONE',  ( 1.000000000000000000, 4.930380657631305173E-32, -1.137978600240781115E-15 ) ) ;
#136 = VECTOR ( 'NONE', #29, 1000.000000000000000 ) ;
#137 = LOCAL_TIME ( 13, 57, 12.00000000000000000, #200 ) ;
#138 = ORIENTED_EDGE ( 'NONE', *, *, #256, .F. ) ;
#139 = ORIENTED_EDGE ( 'NONE', *, *, #182, .T. ) ;
#140 = CIRCLE ( 'NONE', #119, 13.99999999999995026 ) ;
#141 = ADVANCED_FACE ( 'NONE', ( #70 ), #206, .T. ) ;
#142 = DIRECTION ( 'NONE',  ( -1.000000000000000000, -4.930380657631305173E-32, 1.137978600240781115E-15 ) ) ;
#143 = CYLINDRICAL_SURFACE ( 'NONE', #74, 13.99999999999995026 ) ;
#144 = CIRCLE ( 'NONE', #10, 12.99999999999994671 ) ;
#145 = DIRECTION ( 'NONE',  ( -1.000000000000000000, -4.930380657631305173E-32, 1.137978600240781115E-15 ) ) ;
#146 = PERSON_AND_ORGANIZATION_ROLE ( 'creator' ) ;
#147 = DIRECTION ( 'NONE',  ( -1.000000000000000000, -4.930380657631305173E-32, 1.137978600240781115E-15 ) ) ;
#148 = DIRECTION ( 'NONE',  ( 1.130667979877744367E-15, -2.442490654175353066E-15, -1.000000000000000000 ) ) ;
#149 = AXIS2_PLACEMENT_3D ( 'NONE', #164, #49, #148 ) ;
#150 = APPROVAL_DATE_TIME ( #172, #293 ) ;
#151 = DIRECTION ( 'NONE',  ( -1.000000000000000000, -4.930380657631305173E-32, 1.137978600240781115E-15 ) ) ;
#152 = DIRECTION ( 'NONE',  ( 1.000000000000000000, 4.930380657631305173E-32, -1.137978600240781115E-15 ) ) ;
#153 = CALENDAR_DATE ( 2026, 4, 3 ) ;
#154 = FACE_OUTER_BOUND ( 'NONE', #86, .T. ) ;
#155 = EDGE_LOOP ( 'NONE', ( #25, #158, #134, #287 ) ) ;
#156 = PERSON ( 'UNSPECIFIED', 'UNSPECIFIED', 'UNSPECIFIED', ('UNSPECIFIED'), ('UNSPECIFIED'), ('UNSPECIFIED') ) ;
#157 = VERTEX_POINT ( 'NONE', #13 ) ;
#158 = ORIENTED_EDGE ( 'NONE', *, *, #256, .T. ) ;
#159 = EDGE_CURVE ( 'NONE', #181, #204, #242, .T. ) ;
#160 = DIRECTION ( 'NONE',  ( 1.000000000000000000, 4.930380657631305173E-32, -1.137978600240781115E-15 ) ) ;
#161 = PRODUCT ( 'OEM-1_2-BSPP-3000-316L_REV_', 'OEM-1_2-BSPP-3000-316L_REV_', '', ( #127 ) ) ;
#162 = DIRECTION ( 'NONE',  ( 1.137978600240789595E-15, -2.442490654175353461E-15, -1.000000000000000000 ) ) ;
#163 = LOCAL_TIME ( 13, 57, 12.00000000000000000, #18 ) ;
#164 = CARTESIAN_POINT ( 'NONE',  ( 1.000000000000000888, 0.000000000000000000, 0.000000000000000000 ) ) ;
#165 = CARTESIAN_POINT ( 'NONE',  ( 23.99999999999991118, -2.664535259100375697E-12, 2.664535259100375697E-12 ) ) ;
#166 = CARTESIAN_POINT ( 'NONE',  ( 23.99999999999991118, -2.664535259100375697E-12, 2.664535259100375697E-12 ) ) ;
#167 = CIRCLE ( 'NONE', #115, 12.99999999999994671 ) ;
#168 = AXIS2_PLACEMENT_3D ( 'NONE', #171, #175, #225 ) ;
#169 = DIRECTION ( 'NONE',  ( 1.239088197126295205E-15, -2.442490654175351883E-15, -1.000000000000000000 ) ) ;
#170 = CYLINDRICAL_SURFACE ( 'NONE', #196, 13.99999999999995026 ) ;
#171 = CARTESIAN_POINT ( 'NONE',  ( 0.000000000000000000, 0.000000000000000000, 0.000000000000000000 ) ) ;
#172 = DATE_AND_TIME ( #34, #174 ) ;
#173 = DIRECTION ( 'NONE',  ( -1.000000000000000000, -4.930380657631305173E-32, 1.137978600240781115E-15 ) ) ;
#174 = LOCAL_TIME ( 13, 57, 12.00000000000000000, #286 ) ;
#175 = DIRECTION ( 'NONE',  ( 0.000000000000000000, 0.000000000000000000, 1.000000000000000000 ) ) ;
#176 = PERSON_AND_ORGANIZATION ( #156, #253 ) ;
#177 = EDGE_CURVE ( 'NONE', #36, #204, #59, .T. ) ;
#178 = APPROVAL_ROLE ( '' ) ;
#179 = CARTESIAN_POINT ( 'NONE',  ( 0.000000000000000000, 0.000000000000000000, 0.000000000000000000 ) ) ;
#180 = EDGE_LOOP ( 'NONE', ( #109, #203, #183, #133 ) ) ;
#181 = VERTEX_POINT ( 'NONE', #62 ) ;
#182 = EDGE_CURVE ( 'NONE', #56, #42, #215, .T. ) ;
#183 = ORIENTED_EDGE ( 'NONE', *, *, #132, .F. ) ;
#184 = ORIENTED_EDGE ( 'NONE', *, *, #60, .F. ) ;
#185 = EDGE_LOOP ( 'NONE', ( #290, #138 ) ) ;
#186 = AXIS2_PLACEMENT_3D ( 'NONE', #68, #259, #69 ) ;
#187 = FACE_BOUND ( 'NONE', #185, .T. ) ;
#188 = ADVANCED_FACE ( 'NONE', ( #15 ), #50, .T. ) ;
#189 = CARTESIAN_POINT ( 'NONE',  ( -1.081079670228757856E-14, -2.686575505856617538E-12, -9.500000000000000000 ) ) ;
#190 = CARTESIAN_POINT ( 'NONE',  ( 23.99999999999991118, -2.664535259100375697E-12, 2.664535259100375697E-12 ) ) ;
#191 = AXIS2_PLACEMENT_3D ( 'NONE', #231, #160, #207 ) ;
#192 = FACE_OUTER_BOUND ( 'NONE', #155, .T. ) ;
#193 = APPLICATION_CONTEXT ( 'configuration controlled 3d designs of mechanical parts and assemblies' ) ;
#194 = DIRECTION ( 'NONE',  ( -1.095614826932724194E-15, 2.442490654175348728E-15, 1.000000000000000000 ) ) ;
#195 = CIRCLE ( 'NONE', #210, 9.499999999999966249 ) ;
#196 = AXIS2_PLACEMENT_3D ( 'NONE', #264, #147, #239 ) ;
#197 = FACE_OUTER_BOUND ( 'NONE', #257, .T. ) ;
#198 = APPROVAL_ROLE ( '' ) ;
#199 = PRODUCT_DEFINITION ( 'UNKNOWN', '', #76, #32 ) ;
#200 = COORDINATED_UNIVERSAL_TIME_OFFSET ( 10, 0, .AHEAD. ) ;
#201 = APPROVAL_DATE_TIME ( #100, #22 ) ;
#202 = APPROVAL_DATE_TIME ( #107, #95 ) ;
#203 = ORIENTED_EDGE ( 'NONE', *, *, #131, .T. ) ;
#204 = VERTEX_POINT ( 'NONE', #289 ) ;
#205 = EDGE_CURVE ( 'NONE', #45, #126, #38, .T. ) ;
#206 = CONICAL_SURFACE ( 'NONE', #149, 13.99999999999995026, 0.7853981633974509435 ) ;
#207 = DIRECTION ( 'NONE',  ( 1.095614826932724194E-15, -2.442490654175348728E-15, -1.000000000000000000 ) ) ;
#208 = CARTESIAN_POINT ( 'NONE',  ( 23.99999999999992895, -2.630340389941920876E-12, 14.00000000000266454 ) ) ;
#209 = ORIENTED_EDGE ( 'NONE', *, *, #52, .T. ) ;
#210 = AXIS2_PLACEMENT_3D ( 'NONE', #26, #135, #229 ) ;
#211 = LOCAL_TIME ( 13, 57, 12.00000000000000000, #80 ) ;
#212 = CARTESIAN_POINT ( 'NONE',  ( 0.000000000000000000, 0.000000000000000000, 0.000000000000000000 ) ) ;
#213 = CARTESIAN_POINT ( 'NONE',  ( 1.000000000000000888, 0.000000000000000000, 0.000000000000000000 ) ) ;
#214 = AXIS2_PLACEMENT_3D ( 'NONE', #28, #276, #249 ) ;
#215 = CIRCLE ( 'NONE', #21, 9.499999999999966249 ) ;
#216 = FACE_OUTER_BOUND ( 'NONE', #294, .T. ) ;
#217 = CC_DESIGN_PERSON_AND_ORGANIZATION_ASSIGNMENT ( #222, #291, ( #76 ) ) ;
#218 = CARTESIAN_POINT ( 'NONE',  ( 23.99999999999992895, -2.697015622740024277E-12, -13.99999999999728573 ) ) ;
#219 = PERSON_AND_ORGANIZATION ( #156, #253 ) ;
#220 = PERSON_AND_ORGANIZATION ( #156, #253 ) ;
#221 = DIRECTION ( 'NONE',  ( 0.7071067811865483499, -1.727101704552155075E-15, -0.7071067811865467956 ) ) ;
#222 = PERSON_AND_ORGANIZATION ( #156, #253 ) ;
#223 = DIRECTION ( 'NONE',  ( 1.000000000000000000, 4.930380657631305173E-32, -1.137978600240781115E-15 ) ) ;
#224 = ORIENTED_EDGE ( 'NONE', *, *, #6, .F. ) ;
#225 = DIRECTION ( 'NONE',  ( 1.000000000000000000, 0.000000000000000000, 0.000000000000000000 ) ) ;
#226 = FACE_BOUND ( 'NONE', #265, .T. ) ;
#227 = CALENDAR_DATE ( 2026, 4, 3 ) ;
#228 = ORIENTED_EDGE ( 'NONE', *, *, #19, .F. ) ;
#229 = DIRECTION ( 'NONE',  ( 1.137978600240789595E-15, -2.442490654175353066E-15, -1.000000000000000000 ) ) ;
#230 = ORIENTED_EDGE ( 'NONE', *, *, #123, .T. ) ;
#231 = CARTESIAN_POINT ( 'NONE',  ( 23.99999999999991118, -2.664535259100375697E-12, 2.664535259100375697E-12 ) ) ;
#232 = CIRCLE ( 'NONE', #260, 13.99999999999995026 ) ;
#233 = DIRECTION ( 'NONE',  ( 1.239088197126295205E-15, -2.442490654175351883E-15, -1.000000000000000000 ) ) ;
#234 = CC_DESIGN_PERSON_AND_ORGANIZATION_ASSIGNMENT ( #220, #78, ( #5 ) ) ;
#235 = CARTESIAN_POINT ( 'NONE',  ( 23.99999999999991118, -2.664535259100375697E-12, 2.664535259100375697E-12 ) ) ;
#236 = CIRCLE ( 'NONE', #191, 9.499999999999966249 ) ;
#237 = CARTESIAN_POINT ( 'NONE',  ( 1.479372180313014779E-14, 3.462689701021606744E-14, 12.99999999999999289 ) ) ;
#238 = SECURITY_CLASSIFICATION_LEVEL ( 'unclassified' ) ;
#239 = DIRECTION ( 'NONE',  ( -1.239088197126295205E-15, 2.442490654175351883E-15, 1.000000000000000000 ) ) ;
#240 = DATE_TIME_ROLE ( 'classification_date' ) ;
#241 = CC_DESIGN_APPROVAL ( #22, ( #199 ) ) ;
#242 = LINE ( 'NONE', #218, #130 ) ;
#243 = CC_DESIGN_DATE_AND_TIME_ASSIGNMENT ( #266, #122, ( #199 ) ) ;
#244 = DIRECTION ( 'NONE',  ( 1.137978600240789398E-15, -2.442490654175353066E-15, -1.000000000000000000 ) ) ;
#245 =( NAMED_UNIT ( * ) PLANE_ANGLE_UNIT ( ) SI_UNIT ( $, .RADIAN. ) );
#246 = CARTESIAN_POINT ( 'NONE',  ( 23.99999999999991118, -2.664535259100375697E-12, 2.664535259100375697E-12 ) ) ;
#247 = PERSON_AND_ORGANIZATION ( #156, #253 ) ;
#248 = CC_DESIGN_APPROVAL ( #95, ( #76 ) ) ;
#249 = DIRECTION ( 'NONE',  ( 1.130667979877744367E-15, -2.442490654175353066E-15, -1.000000000000000000 ) ) ;
#250 = ADVANCED_FACE ( 'NONE', ( #197, #226 ), #292, .F. ) ;
#251 = ORIENTED_EDGE ( 'NONE', *, *, #19, .T. ) ;
#252 = APPLICATION_CONTEXT ( 'configuration controlled 3d designs of mechanical parts and assemblies' ) ;
#253 = ORGANIZATION ( 'UNSPECIFIED', 'UNSPECIFIED', '' ) ;
#254 = ORIENTED_EDGE ( 'NONE', *, *, #31, .F. ) ;
#255 = ORIENTED_EDGE ( 'NONE', *, *, #123, .F. ) ;
#256 = EDGE_CURVE ( 'NONE', #89, #157, #94, .T. ) ;
#257 = EDGE_LOOP ( 'NONE', ( #251, #297 ) ) ;
#258 = EDGE_LOOP ( 'NONE', ( #230, #66 ) ) ;
#259 = DIRECTION ( 'NONE',  ( 1.000000000000000000, 5.608307998055649021E-30, 1.137978600240789398E-15 ) ) ;
#260 = AXIS2_PLACEMENT_3D ( 'NONE', #166, #283, #233 ) ;
#261 = DIRECTION ( 'NONE',  ( 1.000000000000000000, 4.930380657631305173E-32, -1.137978600240781115E-15 ) ) ;
#262 = DIRECTION ( 'NONE',  ( -1.095614826932724194E-15, 2.442490654175348728E-15, 1.000000000000000000 ) ) ;
#263 = APPROVAL_PERSON_ORGANIZATION ( #176, #22, #271 ) ;
#264 = CARTESIAN_POINT ( 'NONE',  ( 23.99999999999991118, -2.664535259100375697E-12, 2.664535259100375697E-12 ) ) ;
#265 = EDGE_LOOP ( 'NONE', ( #87, #139 ) ) ;
#266 = DATE_AND_TIME ( #153, #137 ) ;
#267 = ORIENTED_EDGE ( 'NONE', *, *, #12, .T. ) ;
#268 = AXIS2_PLACEMENT_3D ( 'NONE', #165, #93, #194 ) ;
#269 = VECTOR ( 'NONE', #221, 1000.000000000000000 ) ;
#270 = PERSON_AND_ORGANIZATION_ROLE ( 'creator' ) ;
#271 = APPROVAL_ROLE ( '' ) ;
#272 = LOCAL_TIME ( 13, 57, 12.00000000000000000, #55 ) ;
#273 = ORIENTED_EDGE ( 'NONE', *, *, #159, .T. ) ;
#274 = LINE ( 'NONE', #299, #4 ) ;
#275 = CC_DESIGN_SECURITY_CLASSIFICATION ( #5, ( #76 ) ) ;
#276 = DIRECTION ( 'NONE',  ( 1.000000000000000000, 4.930380657631305173E-32, -1.137978600240781115E-15 ) ) ;
#277 = CC_DESIGN_PERSON_AND_ORGANIZATION_ASSIGNMENT ( #57, #146, ( #76 ) ) ;
#278 = PLANE ( 'NONE',  #186 ) ;
#279 = UNCERTAINTY_MEASURE_WITH_UNIT (LENGTH_MEASURE( 1.000000000000000082E-05 ), #124, 'distance_accuracy_value', 'NONE');
#280 = LINE ( 'NONE', #47, #136 ) ;
#281 = CARTESIAN_POINT ( 'NONE',  ( 23.99999999999990052, -2.641331597885709925E-12, 9.500000000002630784 ) ) ;
#282 = AXIS2_PLACEMENT_3D ( 'NONE', #96, #261, #169 ) ;
#283 = DIRECTION ( 'NONE',  ( 1.000000000000000000, 4.930380657631305173E-32, -1.137978600240781115E-15 ) ) ;
#284 = CYLINDRICAL_SURFACE ( 'NONE', #268, 9.499999999999966249 ) ;
#285 = ADVANCED_FACE ( 'NONE', ( #154 ), #170, .T. ) ;
#286 = COORDINATED_UNIVERSAL_TIME_OFFSET ( 10, 0, .AHEAD. ) ;
#287 = ORIENTED_EDGE ( 'NONE', *, *, #182, .F. ) ;
#288 = PERSON_AND_ORGANIZATION ( #156, #253 ) ;
#289 = CARTESIAN_POINT ( 'NONE',  ( 0.9999999999999850120, -2.697015622740549747E-12, -14.00000000000000000 ) ) ;
#290 = ORIENTED_EDGE ( 'NONE', *, *, #12, .F. ) ;
#291 = PERSON_AND_ORGANIZATION_ROLE ( 'design_supplier' ) ;
#292 = PLANE ( 'NONE',  #11 ) ;
#293 = APPROVAL ( #17, 'UNSPECIFIED' ) ;
#294 = EDGE_LOOP ( 'NONE', ( #267, #209, #254, #184 ) ) ;
#295 = DIRECTION ( 'NONE',  ( 1.137978600240789595E-15, -2.442490654175353461E-15, -1.000000000000000000 ) ) ;
#296 = CC_DESIGN_PERSON_AND_ORGANIZATION_ASSIGNMENT ( #37, #270, ( #199 ) ) ;
#297 = ORIENTED_EDGE ( 'NONE', *, *, #97, .T. ) ;
#298 = VECTOR ( 'NONE', #151, 1000.000000000000000 ) ;
#299 = CARTESIAN_POINT ( 'NONE',  ( 23.99999999999992184, -2.686575505855851346E-12, -9.499999999997301714 ) ) ;
ENDSEC;
END-ISO-10303-21;
