ISO-10303-21;
HEADER;
FILE_DESCRIPTION (( 'STEP AP203' ),
    '1' );
FILE_NAME ('OEM-20-150-20 -316-S_REV_.step',
    '2026-03-03T07:30:48',
    ( '' ),
    ( '' ),
    'SwSTEP 2.0',
    'SolidWorks 2025',
    '' );
FILE_SCHEMA (( 'CONFIG_CONTROL_DESIGN' ));
ENDSEC;

DATA;
#1 = DIRECTION ( 'NONE',  ( 1.456470098281132976E-17, -4.504935785553622743E-16, 1.000000000000000000 ) ) ;
#2 = CARTESIAN_POINT ( 'NONE',  ( 4.440892098500626162E-13, -1.998401444325281773E-12, 20.00000000000001776 ) ) ;
#3 = FACE_OUTER_BOUND ( 'NONE', #306, .T. ) ;
#4 = CIRCLE ( 'NONE', #203, 12.05000000000017124 ) ;
#5 = ADVANCED_BREP_SHAPE_REPRESENTATION ( 'OEM-20-150-20 -316-S_REV_', ( #70, #190 ), #282 ) ;
#6 = APPROVAL_STATUS ( 'not_yet_approved' ) ;
#7 = DIRECTION ( 'NONE',  ( 1.456470098281132976E-17, -4.504935785553622743E-16, 1.000000000000000000 ) ) ;
#8 = ADVANCED_FACE ( 'NONE', ( #151 ), #30, .T. ) ;
#9 = CIRCLE ( 'NONE', #208, 12.05000000000017124 ) ;
#10 = PRODUCT ( 'OEM-20-150-20 -316-S_REV_', 'OEM-20-150-20 -316-S_REV_', '', ( #247 ) ) ;
#11 = AXIS2_PLACEMENT_3D ( 'NONE', #321, #165, #215 ) ;
#12 = SECURITY_CLASSIFICATION_LEVEL ( 'unclassified' ) ;
#13 = ORIENTED_EDGE ( 'NONE', *, *, #123, .T. ) ;
#14 = EDGE_CURVE ( 'NONE', #150, #303, #117, .T. ) ;
#15 = VERTEX_POINT ( 'NONE', #153 ) ;
#16 = FACE_OUTER_BOUND ( 'NONE', #332, .T. ) ;
#17 = VECTOR ( 'NONE', #85, 1000.000000000000114 ) ;
#18 = COORDINATED_UNIVERSAL_TIME_OFFSET ( 10, 0, .AHEAD. ) ;
#19 = CARTESIAN_POINT ( 'NONE',  ( 0.000000000000000000, 0.000000000000000000, 0.000000000000000000 ) ) ;
#20 = ORIENTED_EDGE ( 'NONE', *, *, #136, .T. ) ;
#21 = LOCAL_TIME ( 18, 30, 48.00000000000000000, #115 ) ;
#22 = PERSON_AND_ORGANIZATION ( #277, #246 ) ;
#23 = VERTEX_POINT ( 'NONE', #74 ) ;
#24 = CLOSED_SHELL ( 'NONE', ( #186, #301, #8, #172, #210, #75, #224, #108, #111, #235 ) ) ;
#25 = CARTESIAN_POINT ( 'NONE',  ( -12.05000000000000071, -2.175869881800726887E-14, 1.755046468428666815E-16 ) ) ;
#26 = EDGE_CURVE ( 'NONE', #101, #212, #106, .T. ) ;
#27 = DIRECTION ( 'NONE',  ( 1.456470098281132976E-17, -4.504935785553622743E-16, 1.000000000000000000 ) ) ;
#28 = LOCAL_TIME ( 18, 30, 48.00000000000000000, #34 ) ;
#29 = LINE ( 'NONE', #217, #17 ) ;
#30 = CONICAL_SURFACE ( 'NONE', #229, 18.50000000000026290, 0.7853981633974482790 ) ;
#31 = CARTESIAN_POINT ( 'NONE',  ( 4.440892098500626162E-13, -1.998401444325281773E-12, 20.00000000000001776 ) ) ;
#32 = CARTESIAN_POINT ( 'NONE',  ( 17.50000000000024158, 2.720046410331652141E-14, 2.548822671989720572E-16 ) ) ;
#33 = DIRECTION ( 'NONE',  ( 0.000000000000000000, 0.000000000000000000, 1.000000000000000000 ) ) ;
#34 = COORDINATED_UNIVERSAL_TIME_OFFSET ( 10, 0, .AHEAD. ) ;
#35 = AXIS2_PLACEMENT_3D ( 'NONE', #245, #188, #270 ) ;
#36 = ORIENTED_EDGE ( 'NONE', *, *, #26, .T. ) ;
#37 = APPROVAL_DATE_TIME ( #278, #262 ) ;
#38 =( NAMED_UNIT ( * ) SI_UNIT ( $, .STERADIAN. ) SOLID_ANGLE_UNIT ( ) );
#39 = ORIENTED_EDGE ( 'NONE', *, *, #338, .T. ) ;
#40 = PERSON_AND_ORGANIZATION ( #277, #246 ) ;
#41 = VERTEX_POINT ( 'NONE', #152 ) ;
#42 = ORIENTED_EDGE ( 'NONE', *, *, #51, .F. ) ;
#43 = CARTESIAN_POINT ( 'NONE',  ( -18.50000000000026290, -2.648917975936913086E-14, 1.000000000000000666 ) ) ;
#44 = EDGE_LOOP ( 'NONE', ( #281, #131 ) ) ;
#45 = AXIS2_PLACEMENT_3D ( 'NONE', #244, #27, #347 ) ;
#46 = APPROVAL_STATUS ( 'not_yet_approved' ) ;
#47 = CARTESIAN_POINT ( 'NONE',  ( 4.440892098500626162E-13, -1.998401444325281773E-12, 20.00000000000001776 ) ) ;
#48 = ORIENTED_EDGE ( 'NONE', *, *, #311, .F. ) ;
#49 = AXIS2_PLACEMENT_3D ( 'NONE', #145, #87, #230 ) ;
#50 = DIRECTION ( 'NONE',  ( -1.456470098279750312E-17, -4.504935785553622743E-16, 1.000000000000000000 ) ) ;
#51 = EDGE_CURVE ( 'NONE', #101, #15, #315, .T. ) ;
#52 = CARTESIAN_POINT ( 'NONE',  ( -18.49999999999955591, -2.022651284877519597E-12, 19.00000000000001776 ) ) ;
#53 = DIRECTION ( 'NONE',  ( 1.456470098281132976E-17, -4.504935785553622743E-16, 1.000000000000000000 ) ) ;
#54 = SECURITY_CLASSIFICATION ( '', '', #12 ) ;
#55 = DIRECTION ( 'NONE',  ( 1.000000000000000000, 1.554312234475207915E-15, 0.000000000000000000 ) ) ;
#56 = CIRCLE ( 'NONE', #91, 17.50000000000024158 ) ;
#57 = CARTESIAN_POINT ( 'NONE',  ( 18.50000000000044409, -1.962876135623514532E-12, 19.00000000000001776 ) ) ;
#58 = EDGE_CURVE ( 'NONE', #150, #15, #73, .T. ) ;
#59 = PERSON_AND_ORGANIZATION ( #277, #246 ) ;
#60 = CIRCLE ( 'NONE', #11, 18.50000000000026290 ) ;
#61 = ORIENTED_EDGE ( 'NONE', *, *, #146, .F. ) ;
#62 = ORIENTED_EDGE ( 'NONE', *, *, #51, .T. ) ;
#63 =( NAMED_UNIT ( * ) PLANE_ANGLE_UNIT ( ) SI_UNIT ( $, .RADIAN. ) );
#64 = CONICAL_SURFACE ( 'NONE', #187, 17.50000000000025224, 0.7853981633974447263 ) ;
#65 = APPROVAL_ROLE ( '' ) ;
#66 = CARTESIAN_POINT ( 'NONE',  ( 0.000000000000000000, 0.000000000000000000, 0.000000000000000000 ) ) ;
#67 = PERSON_AND_ORGANIZATION ( #277, #246 ) ;
#68 = DIRECTION ( 'NONE',  ( 1.456470098281132976E-17, -4.504935785553622743E-16, 1.000000000000000000 ) ) ;
#69 = CC_DESIGN_DATE_AND_TIME_ASSIGNMENT ( #127, #124, ( #54 ) ) ;
#70 = MANIFOLD_SOLID_BREP ( 'Cut-Extrude1', #24 ) ;
#71 = APPROVAL_PERSON_ORGANIZATION ( #40, #239, #252 ) ;
#72 = EDGE_CURVE ( 'NONE', #93, #223, #169, .T. ) ;
#73 = LINE ( 'NONE', #177, #159 ) ;
#74 = CARTESIAN_POINT ( 'NONE',  ( -17.49999999999955591, -2.026153817756557890E-12, 20.00000000000001776 ) ) ;
#75 = ADVANCED_FACE ( 'NONE', ( #207, #16 ), #103, .T. ) ;
#76 = EDGE_LOOP ( 'NONE', ( #225, #259, #39, #266 ) ) ;
#77 = PLANE ( 'NONE',  #132 ) ;
#78 = CONICAL_SURFACE ( 'NONE', #293, 18.50000000000026290, 0.7853981633974482790 ) ;
#79 = FACE_OUTER_BOUND ( 'NONE', #200, .T. ) ;
#80 = FACE_OUTER_BOUND ( 'NONE', #206, .T. ) ;
#81 = EDGE_CURVE ( 'NONE', #212, #41, #341, .T. ) ;
#82 = AXIS2_PLACEMENT_3D ( 'NONE', #139, #110, #283 ) ;
#83 = CARTESIAN_POINT ( 'NONE',  ( 4.440892098500626162E-13, -1.998401444325281773E-12, 20.00000000000001776 ) ) ;
#84 = VECTOR ( 'NONE', #261, 1000.000000000000114 ) ;
#85 = DIRECTION ( 'NONE',  ( 0.7071067811865501263, 1.504207390979678783E-15, -0.7071067811865450192 ) ) ;
#86 = UNCERTAINTY_MEASURE_WITH_UNIT (LENGTH_MEASURE( 1.000000000000000082E-05 ), #331, 'distance_accuracy_value', 'NONE');
#87 = DIRECTION ( 'NONE',  ( 1.456470098281132976E-17, -4.504935785553622743E-16, 1.000000000000000000 ) ) ;
#88 = EDGE_CURVE ( 'NONE', #93, #253, #98, .T. ) ;
#89 = VERTEX_POINT ( 'NONE', #122 ) ;
#90 = APPROVAL_DATE_TIME ( #149, #239 ) ;
#91 = AXIS2_PLACEMENT_3D ( 'NONE', #134, #137, #242 ) ;
#92 = PERSON_AND_ORGANIZATION ( #277, #246 ) ;
#93 = VERTEX_POINT ( 'NONE', #260 ) ;
#94 = DIRECTION ( 'NONE',  ( 1.456470098281132976E-17, -4.504935785553622743E-16, 1.000000000000000000 ) ) ;
#95 = CIRCLE ( 'NONE', #82, 17.50000000000025224 ) ;
#96 = FACE_OUTER_BOUND ( 'NONE', #129, .T. ) ;
#97 = PRODUCT_DEFINITION ( 'UNKNOWN', '', #254, #141 ) ;
#98 = LINE ( 'NONE', #318, #249 ) ;
#99 = DIRECTION ( 'NONE',  ( 1.456470098281132976E-17, -4.504935785553622743E-16, 1.000000000000000000 ) ) ;
#100 = LOCAL_TIME ( 18, 30, 48.00000000000000000, #339 ) ;
#101 = VERTEX_POINT ( 'NONE', #340 ) ;
#102 = CIRCLE ( 'NONE', #263, 18.50000000000026290 ) ;
#103 = PLANE ( 'NONE',  #198 ) ;
#104 = DIRECTION ( 'NONE',  ( -1.000000000000000000, -1.554312234475199041E-15, 0.000000000000000000 ) ) ;
#105 = CARTESIAN_POINT ( 'NONE',  ( 0.000000000000000000, 0.000000000000000000, 0.000000000000000000 ) ) ;
#106 = CIRCLE ( 'NONE', #316, 17.50000000000024158 ) ;
#107 = CARTESIAN_POINT ( 'NONE',  ( 18.50000000000070699, -1.967381071409067454E-12, 20.00000000000001776 ) ) ;
#108 = ADVANCED_FACE ( 'NONE', ( #96 ), #78, .T. ) ;
#109 = LINE ( 'NONE', #107, #326 ) ;
#110 = DIRECTION ( 'NONE',  ( 1.456470098281132976E-17, -4.504935785553622743E-16, 1.000000000000000000 ) ) ;
#111 = ADVANCED_FACE ( 'NONE', ( #236 ), #64, .T. ) ;
#112 = APPROVAL_ROLE ( '' ) ;
#113 = ORIENTED_EDGE ( 'NONE', *, *, #311, .T. ) ;
#114 = ORIENTED_EDGE ( 'NONE', *, *, #58, .T. ) ;
#115 = COORDINATED_UNIVERSAL_TIME_OFFSET ( 10, 0, .AHEAD. ) ;
#116 = ORIENTED_EDGE ( 'NONE', *, *, #72, .F. ) ;
#117 = CIRCLE ( 'NONE', #204, 18.50000000000026290 ) ;
#118 = DIRECTION ( 'NONE',  ( 1.000000000000000000, 0.000000000000000000, 0.000000000000000000 ) ) ;
#119 = PRODUCT_RELATED_PRODUCT_CATEGORY ( 'detail', '', ( #10 ) ) ;
#120 = ORIENTED_EDGE ( 'NONE', *, *, #88, .T. ) ;
#121 = CARTESIAN_POINT ( 'NONE',  ( 4.440892098500626162E-13, -1.998401444325281773E-12, 20.00000000000001776 ) ) ;
#122 = CARTESIAN_POINT ( 'NONE',  ( -12.04999999999955662, -2.175869881807220790E-14, 20.00000000000001776 ) ) ;
#123 = EDGE_CURVE ( 'NONE', #303, #150, #60, .T. ) ;
#124 = DATE_TIME_ROLE ( 'classification_date' ) ;
#125 = VERTEX_POINT ( 'NONE', #271 ) ;
#126 = AXIS2_PLACEMENT_3D ( 'NONE', #162, #294, #220 ) ;
#127 = DATE_AND_TIME ( #205, #100 ) ;
#128 = DIRECTION ( 'NONE',  ( 1.000000000000000000, 1.554312234475208310E-15, 1.172110456741069280E-17 ) ) ;
#129 = EDGE_LOOP ( 'NONE', ( #42, #308, #147, #279 ) ) ;
#130 = DATE_AND_TIME ( #344, #297 ) ;
#131 = ORIENTED_EDGE ( 'NONE', *, *, #338, .F. ) ;
#132 = AXIS2_PLACEMENT_3D ( 'NONE', #105, #50, #319 ) ;
#133 = CYLINDRICAL_SURFACE ( 'NONE', #45, 12.05000000000017124 ) ;
#134 = CARTESIAN_POINT ( 'NONE',  ( 0.000000000000000000, 0.000000000000000000, 0.000000000000000000 ) ) ;
#135 = CC_DESIGN_PERSON_AND_ORGANIZATION_ASSIGNMENT ( #67, #233, ( #54 ) ) ;
#136 = EDGE_CURVE ( 'NONE', #23, #125, #211, .T. ) ;
#137 = DIRECTION ( 'NONE',  ( -1.456470098281132976E-17, 4.504935785553622743E-16, -1.000000000000000000 ) ) ;
#138 = CARTESIAN_POINT ( 'NONE',  ( 0.000000000000000000, 0.000000000000000000, 1.000000000000000888 ) ) ;
#139 = CARTESIAN_POINT ( 'NONE',  ( 4.440892098500626162E-13, -1.998401444325281773E-12, 20.00000000000001776 ) ) ;
#140 = PERSON_AND_ORGANIZATION_ROLE ( 'creator' ) ;
#141 = DESIGN_CONTEXT ( 'detailed design', #314, 'design' ) ;
#142 = ORIENTED_EDGE ( 'NONE', *, *, #14, .T. ) ;
#143 = APPROVAL_STATUS ( 'not_yet_approved' ) ;
#144 = CC_DESIGN_APPROVAL ( #175, ( #54 ) ) ;
#145 = CARTESIAN_POINT ( 'NONE',  ( 0.000000000000000000, 0.000000000000000000, 1.000000000000000888 ) ) ;
#146 = EDGE_CURVE ( 'NONE', #223, #89, #298, .T. ) ;
#147 = ORIENTED_EDGE ( 'NONE', *, *, #81, .T. ) ;
#148 = AXIS2_PLACEMENT_3D ( 'NONE', #323, #53, #296 ) ;
#149 = DATE_AND_TIME ( #227, #21 ) ;
#150 = VERTEX_POINT ( 'NONE', #52 ) ;
#151 = FACE_OUTER_BOUND ( 'NONE', #328, .T. ) ;
#152 = CARTESIAN_POINT ( 'NONE',  ( 18.50000000000000000, -1.962876135623462833E-12, 1.000000000000000666 ) ) ;
#153 = CARTESIAN_POINT ( 'NONE',  ( -18.50000000000000000, -2.022651284877539792E-12, 1.000000000000001110 ) ) ;
#154 = VECTOR ( 'NONE', #232, 1000.000000000000114 ) ;
#155 = DIRECTION ( 'NONE',  ( -1.456470098279750312E-17, -4.504935785553622743E-16, 1.000000000000000000 ) ) ;
#156 = DIRECTION ( 'NONE',  ( 1.456470098281132976E-17, -4.504935785553622743E-16, 1.000000000000000000 ) ) ;
#157 = AXIS2_PLACEMENT_3D ( 'NONE', #31, #191, #218 ) ;
#158 = CARTESIAN_POINT ( 'NONE',  ( -12.05000000000017124, -1.725376303245394590E-14, -1.755046468427201752E-16 ) ) ;
#159 = VECTOR ( 'NONE', #184, 1000.000000000000000 ) ;
#160 = FACE_BOUND ( 'NONE', #335, .T. ) ;
#161 = CC_DESIGN_PERSON_AND_ORGANIZATION_ASSIGNMENT ( #329, #302, ( #10 ) ) ;
#162 = CARTESIAN_POINT ( 'NONE',  ( 4.440892098500626162E-13, -1.998401444325281773E-12, 20.00000000000001776 ) ) ;
#163 = CC_DESIGN_APPROVAL ( #239, ( #254 ) ) ;
#164 = FACE_OUTER_BOUND ( 'NONE', #342, .T. ) ;
#165 = DIRECTION ( 'NONE',  ( -1.456470098281132976E-17, 4.504935785553622743E-16, -1.000000000000000000 ) ) ;
#166 = PERSON_AND_ORGANIZATION ( #277, #246 ) ;
#167 = ORIENTED_EDGE ( 'NONE', *, *, #333, .T. ) ;
#168 = APPLICATION_CONTEXT ( 'configuration controlled 3d designs of mechanical parts and assemblies' ) ;
#169 = CIRCLE ( 'NONE', #221, 12.05000000000017124 ) ;
#170 = DIRECTION ( 'NONE',  ( 1.000000000000000000, 1.554312234475207915E-15, 0.000000000000000000 ) ) ;
#171 = ORIENTED_EDGE ( 'NONE', *, *, #58, .F. ) ;
#172 = ADVANCED_FACE ( 'NONE', ( #79 ), #243, .T. ) ;
#173 = COORDINATED_UNIVERSAL_TIME_OFFSET ( 10, 0, .AHEAD. ) ;
#174 = LINE ( 'NONE', #255, #226 ) ;
#175 = APPROVAL ( #46, 'UNSPECIFIED' ) ;
#176 = EDGE_CURVE ( 'NONE', #125, #303, #29, .T. ) ;
#177 = CARTESIAN_POINT ( 'NONE',  ( -18.49999999999981881, -2.027156220663073327E-12, 20.00000000000001776 ) ) ;
#178 = CIRCLE ( 'NONE', #49, 18.50000000000026290 ) ;
#179 = DIRECTION ( 'NONE',  ( 1.456470098281132976E-17, -4.504935785553622743E-16, 1.000000000000000000 ) ) ;
#180 = PRODUCT_DEFINITION_SHAPE ( 'NONE', 'NONE',  #97 ) ;
#181 = ORIENTED_EDGE ( 'NONE', *, *, #72, .T. ) ;
#182 = SHAPE_DEFINITION_REPRESENTATION ( #180, #5 ) ;
#183 = CARTESIAN_POINT ( 'NONE',  ( 4.440892098500626162E-13, -1.998401444325281773E-12, 19.00000000000001776 ) ) ;
#184 = DIRECTION ( 'NONE',  ( -1.456470098281132976E-17, 4.504935785553622743E-16, -1.000000000000000000 ) ) ;
#185 = CYLINDRICAL_SURFACE ( 'NONE', #126, 18.50000000000026290 ) ;
#186 = ADVANCED_FACE ( 'NONE', ( #295 ), #241, .F. ) ;
#187 = AXIS2_PLACEMENT_3D ( 'NONE', #47, #325, #189 ) ;
#188 = DIRECTION ( 'NONE',  ( 1.456470098281132976E-17, -4.504935785553622743E-16, 1.000000000000000000 ) ) ;
#189 = DIRECTION ( 'NONE',  ( -1.000000000000000000, -1.554312234475202985E-15, 0.000000000000000000 ) ) ;
#190 = AXIS2_PLACEMENT_3D ( 'NONE', #195, #33, #118 ) ;
#191 = DIRECTION ( 'NONE',  ( -1.456470098281132976E-17, 4.504935785553622743E-16, -1.000000000000000000 ) ) ;
#192 = AXIS2_PLACEMENT_3D ( 'NONE', #83, #1, #55 ) ;
#193 = DIRECTION ( 'NONE',  ( -1.456470098281132976E-17, 4.504935785553622743E-16, -1.000000000000000000 ) ) ;
#194 = ORIENTED_EDGE ( 'NONE', *, *, #123, .F. ) ;
#195 = CARTESIAN_POINT ( 'NONE',  ( 0.000000000000000000, 0.000000000000000000, 0.000000000000000000 ) ) ;
#196 = EDGE_LOOP ( 'NONE', ( #231, #36 ) ) ;
#197 = CC_DESIGN_PERSON_AND_ORGANIZATION_ASSIGNMENT ( #59, #140, ( #97 ) ) ;
#198 = AXIS2_PLACEMENT_3D ( 'NONE', #265, #155, #234 ) ;
#199 = PERSON_AND_ORGANIZATION_ROLE ( 'creator' ) ;
#200 = EDGE_LOOP ( 'NONE', ( #142, #228, #167, #171 ) ) ;
#201 = PERSON_AND_ORGANIZATION ( #277, #246 ) ;
#202 = ORIENTED_EDGE ( 'NONE', *, *, #136, .F. ) ;
#203 = AXIS2_PLACEMENT_3D ( 'NONE', #327, #7, #336 ) ;
#204 = AXIS2_PLACEMENT_3D ( 'NONE', #183, #209, #286 ) ;
#205 = CALENDAR_DATE ( 2026, 3, 3 ) ;
#206 = EDGE_LOOP ( 'NONE', ( #48, #248, #237, #238 ) ) ;
#207 = FACE_BOUND ( 'NONE', #44, .T. ) ;
#208 = AXIS2_PLACEMENT_3D ( 'NONE', #121, #94, #170 ) ;
#209 = DIRECTION ( 'NONE',  ( -1.456470098281132976E-17, 4.504935785553622743E-16, -1.000000000000000000 ) ) ;
#210 = ADVANCED_FACE ( 'NONE', ( #3 ), #185, .T. ) ;
#211 = CIRCLE ( 'NONE', #35, 17.50000000000025224 ) ;
#212 = VERTEX_POINT ( 'NONE', #32 ) ;
#213 = CARTESIAN_POINT ( 'NONE',  ( 18.50000000000026290, 2.875477633779176266E-14, 1.000000000000001110 ) ) ;
#214 = CC_DESIGN_PERSON_AND_ORGANIZATION_ASSIGNMENT ( #201, #258, ( #254 ) ) ;
#215 = DIRECTION ( 'NONE',  ( 1.000000000000000000, 1.554312234475199041E-15, 0.000000000000000000 ) ) ;
#216 = DIRECTION ( 'NONE',  ( 1.456470098281132976E-17, -4.504935785553622743E-16, 1.000000000000000000 ) ) ;
#217 = CARTESIAN_POINT ( 'NONE',  ( 17.50000000000069633, -1.969057848323457232E-12, 20.00000000000001776 ) ) ;
#218 = DIRECTION ( 'NONE',  ( -1.000000000000000000, -1.554312234475202985E-15, 0.000000000000000000 ) ) ;
#219 = CONICAL_SURFACE ( 'NONE', #157, 17.50000000000025224, 0.7853981633974447263 ) ;
#220 = DIRECTION ( 'NONE',  ( -1.000000000000000000, -1.554312234475199041E-15, 0.000000000000000000 ) ) ;
#221 = AXIS2_PLACEMENT_3D ( 'NONE', #66, #156, #289 ) ;
#222 = CALENDAR_DATE ( 2026, 3, 3 ) ;
#223 = VERTEX_POINT ( 'NONE', #25 ) ;
#224 = ADVANCED_FACE ( 'NONE', ( #160, #274 ), #77, .F. ) ;
#225 = ORIENTED_EDGE ( 'NONE', *, *, #324, .F. ) ;
#226 = VECTOR ( 'NONE', #300, 1000.000000000000114 ) ;
#227 = CALENDAR_DATE ( 2026, 3, 3 ) ;
#228 = ORIENTED_EDGE ( 'NONE', *, *, #287, .T. ) ;
#229 = AXIS2_PLACEMENT_3D ( 'NONE', #317, #99, #346 ) ;
#230 = DIRECTION ( 'NONE',  ( 1.000000000000000000, 1.554312234475208310E-15, 1.172110456741069280E-17 ) ) ;
#231 = ORIENTED_EDGE ( 'NONE', *, *, #240, .T. ) ;
#232 = DIRECTION ( 'NONE',  ( 0.7071067811865525687, 7.805176568011536833E-16, 0.7071067811865424657 ) ) ;
#233 = PERSON_AND_ORGANIZATION_ROLE ( 'classification_officer' ) ;
#234 = DIRECTION ( 'NONE',  ( 1.000000000000000000, 1.554312234475208507E-15, 1.456470098279820262E-17 ) ) ;
#235 = ADVANCED_FACE ( 'NONE', ( #164 ), #133, .F. ) ;
#236 = FACE_OUTER_BOUND ( 'NONE', #345, .T. ) ;
#237 = ORIENTED_EDGE ( 'NONE', *, *, #14, .F. ) ;
#238 = ORIENTED_EDGE ( 'NONE', *, *, #348, .F. ) ;
#239 = APPROVAL ( #143, 'UNSPECIFIED' ) ;
#240 = EDGE_CURVE ( 'NONE', #212, #101, #56, .T. ) ;
#241 = CYLINDRICAL_SURFACE ( 'NONE', #148, 12.05000000000017124 ) ;
#242 = DIRECTION ( 'NONE',  ( 1.000000000000000000, 1.554312234475208310E-15, 1.456470098279820262E-17 ) ) ;
#243 = CYLINDRICAL_SURFACE ( 'NONE', #320, 18.50000000000026290 ) ;
#244 = CARTESIAN_POINT ( 'NONE',  ( 0.000000000000000000, 0.000000000000000000, 0.000000000000000000 ) ) ;
#245 = CARTESIAN_POINT ( 'NONE',  ( 4.440892098500626162E-13, -1.998401444325281773E-12, 20.00000000000001776 ) ) ;
#246 = ORGANIZATION ( 'UNSPECIFIED', 'UNSPECIFIED', '' ) ;
#247 = MECHANICAL_CONTEXT ( 'NONE', #168, 'mechanical' ) ;
#248 = ORIENTED_EDGE ( 'NONE', *, *, #176, .T. ) ;
#249 = VECTOR ( 'NONE', #68, 1000.000000000000000 ) ;
#250 = EDGE_CURVE ( 'NONE', #253, #89, #257, .T. ) ;
#251 = DATE_AND_TIME ( #280, #28 ) ;
#252 = APPROVAL_ROLE ( '' ) ;
#253 = VERTEX_POINT ( 'NONE', #349 ) ;
#254 = PRODUCT_DEFINITION_FORMATION_WITH_SPECIFIED_SOURCE ( 'ANY', '', #10, .NOT_KNOWN. ) ;
#255 = CARTESIAN_POINT ( 'NONE',  ( -17.49999999999980815, -2.025601908428598108E-12, 20.00000000000001776 ) ) ;
#256 = ORIENTED_EDGE ( 'NONE', *, *, #276, .T. ) ;
#257 = CIRCLE ( 'NONE', #192, 12.05000000000017124 ) ;
#258 = PERSON_AND_ORGANIZATION_ROLE ( 'design_supplier' ) ;
#259 = ORIENTED_EDGE ( 'NONE', *, *, #146, .T. ) ;
#260 = CARTESIAN_POINT ( 'NONE',  ( 12.05000000000017124, 1.872946242542652841E-14, 1.755046468427208655E-16 ) ) ;
#261 = DIRECTION ( 'NONE',  ( -0.7071067811865525687, -1.331016179732582049E-15, 0.7071067811865424657 ) ) ;
#262 = APPROVAL ( #6, 'UNSPECIFIED' ) ;
#263 = AXIS2_PLACEMENT_3D ( 'NONE', #138, #216, #273 ) ;
#264 = APPROVAL_DATE_TIME ( #130, #175 ) ;
#265 = CARTESIAN_POINT ( 'NONE',  ( 4.440892098500626162E-13, -1.998401444325281773E-12, 20.00000000000001776 ) ) ;
#266 = ORIENTED_EDGE ( 'NONE', *, *, #88, .F. ) ;
#267 = LOCAL_TIME ( 18, 30, 48.00000000000000000, #173 ) ;
#268 = DIRECTION ( 'NONE',  ( 1.000000000000000000, 1.554312234475208310E-15, 1.456470098279820262E-17 ) ) ;
#269 = DIRECTION ( 'NONE',  ( 1.456470098281132976E-17, -4.504935785553622743E-16, 1.000000000000000000 ) ) ;
#270 = DIRECTION ( 'NONE',  ( 1.000000000000000000, 1.554312234475202985E-15, 0.000000000000000000 ) ) ;
#271 = CARTESIAN_POINT ( 'NONE',  ( 17.50000000000044409, -1.967994213076985525E-12, 20.00000000000001776 ) ) ;
#272 = CC_DESIGN_APPROVAL ( #262, ( #97 ) ) ;
#273 = DIRECTION ( 'NONE',  ( 1.000000000000000000, 1.554312234475208310E-15, 1.172110456741069280E-17 ) ) ;
#274 = FACE_OUTER_BOUND ( 'NONE', #196, .T. ) ;
#275 = APPLICATION_PROTOCOL_DEFINITION ( 'international standard', 'config_control_design', 1994, #168 ) ;
#276 = EDGE_CURVE ( 'NONE', #15, #41, #102, .T. ) ;
#277 = PERSON ( 'UNSPECIFIED', 'UNSPECIFIED', 'UNSPECIFIED', ('UNSPECIFIED'), ('UNSPECIFIED'), ('UNSPECIFIED') ) ;
#278 = DATE_AND_TIME ( #222, #267 ) ;
#279 = ORIENTED_EDGE ( 'NONE', *, *, #276, .F. ) ;
#280 = CALENDAR_DATE ( 2026, 3, 3 ) ;
#281 = ORIENTED_EDGE ( 'NONE', *, *, #250, .F. ) ;
#282 =( GEOMETRIC_REPRESENTATION_CONTEXT ( 3 ) GLOBAL_UNCERTAINTY_ASSIGNED_CONTEXT ( ( #86 ) ) GLOBAL_UNIT_ASSIGNED_CONTEXT ( ( #331, #63, #38 ) ) REPRESENTATION_CONTEXT ( 'NONE', 'WORKASPACE' ) );
#283 = DIRECTION ( 'NONE',  ( 1.000000000000000000, 1.554312234475202985E-15, 0.000000000000000000 ) ) ;
#284 = ORIENTED_EDGE ( 'NONE', *, *, #26, .F. ) ;
#285 = ORIENTED_EDGE ( 'NONE', *, *, #176, .F. ) ;
#286 = DIRECTION ( 'NONE',  ( 1.000000000000000000, 1.554312234475199041E-15, 0.000000000000000000 ) ) ;
#287 = EDGE_CURVE ( 'NONE', #303, #41, #109, .T. ) ;
#288 = ORIENTED_EDGE ( 'NONE', *, *, #333, .F. ) ;
#289 = DIRECTION ( 'NONE',  ( 1.000000000000000000, 1.554312234475208507E-15, 1.456470098279820570E-17 ) ) ;
#290 = DIRECTION ( 'NONE',  ( -1.456470098281132976E-17, 4.504935785553622743E-16, -1.000000000000000000 ) ) ;
#291 = APPROVAL_PERSON_ORGANIZATION ( #166, #262, #112 ) ;
#292 = ORIENTED_EDGE ( 'NONE', *, *, #250, .T. ) ;
#293 = AXIS2_PLACEMENT_3D ( 'NONE', #313, #179, #128 ) ;
#294 = DIRECTION ( 'NONE',  ( -1.456470098281132976E-17, 4.504935785553622743E-16, -1.000000000000000000 ) ) ;
#295 = FACE_OUTER_BOUND ( 'NONE', #76, .T. ) ;
#296 = DIRECTION ( 'NONE',  ( 1.000000000000000000, 1.554312234475208507E-15, 1.456470098279820570E-17 ) ) ;
#297 = LOCAL_TIME ( 18, 30, 48.00000000000000000, #18 ) ;
#298 = LINE ( 'NONE', #158, #309 ) ;
#299 = CC_DESIGN_DATE_AND_TIME_ASSIGNMENT ( #251, #304, ( #97 ) ) ;
#300 = DIRECTION ( 'NONE',  ( -0.7071067811865501263, -7.805176568011486543E-16, -0.7071067811865450192 ) ) ;
#301 = ADVANCED_FACE ( 'NONE', ( #80 ), #219, .T. ) ;
#302 = PERSON_AND_ORGANIZATION_ROLE ( 'design_owner' ) ;
#303 = VERTEX_POINT ( 'NONE', #57 ) ;
#304 = DATE_TIME_ROLE ( 'creation_date' ) ;
#305 = ORIENTED_EDGE ( 'NONE', *, *, #348, .T. ) ;
#306 = EDGE_LOOP ( 'NONE', ( #312, #13, #114, #256 ) ) ;
#307 = APPROVAL_PERSON_ORGANIZATION ( #22, #175, #65 ) ;
#308 = ORIENTED_EDGE ( 'NONE', *, *, #240, .F. ) ;
#309 = VECTOR ( 'NONE', #269, 1000.000000000000000 ) ;
#310 = CC_DESIGN_PERSON_AND_ORGANIZATION_ASSIGNMENT ( #92, #199, ( #254 ) ) ;
#311 = EDGE_CURVE ( 'NONE', #125, #23, #95, .T. ) ;
#312 = ORIENTED_EDGE ( 'NONE', *, *, #287, .F. ) ;
#313 = CARTESIAN_POINT ( 'NONE',  ( 0.000000000000000000, 0.000000000000000000, 1.000000000000000888 ) ) ;
#314 = APPLICATION_CONTEXT ( 'configuration controlled 3d designs of mechanical parts and assemblies' ) ;
#315 = LINE ( 'NONE', #43, #84 ) ;
#316 = AXIS2_PLACEMENT_3D ( 'NONE', #19, #290, #268 ) ;
#317 = CARTESIAN_POINT ( 'NONE',  ( 0.000000000000000000, 0.000000000000000000, 1.000000000000000888 ) ) ;
#318 = CARTESIAN_POINT ( 'NONE',  ( 12.05000000000017124, 1.872946242542652841E-14, 1.755046468427208655E-16 ) ) ;
#319 = DIRECTION ( 'NONE',  ( 1.000000000000000000, 1.554312234475208507E-15, 1.456470098279820262E-17 ) ) ;
#320 = AXIS2_PLACEMENT_3D ( 'NONE', #2, #193, #104 ) ;
#321 = CARTESIAN_POINT ( 'NONE',  ( 4.440892098500626162E-13, -1.998401444325281773E-12, 19.00000000000001776 ) ) ;
#322 = DIRECTION ( 'NONE',  ( -1.456470098281132976E-17, 4.504935785553622743E-16, -1.000000000000000000 ) ) ;
#323 = CARTESIAN_POINT ( 'NONE',  ( 0.000000000000000000, 0.000000000000000000, 0.000000000000000000 ) ) ;
#324 = EDGE_CURVE ( 'NONE', #223, #93, #4, .T. ) ;
#325 = DIRECTION ( 'NONE',  ( -1.456470098281132976E-17, 4.504935785553622743E-16, -1.000000000000000000 ) ) ;
#326 = VECTOR ( 'NONE', #322, 1000.000000000000000 ) ;
#327 = CARTESIAN_POINT ( 'NONE',  ( 0.000000000000000000, 0.000000000000000000, 0.000000000000000000 ) ) ;
#328 = EDGE_LOOP ( 'NONE', ( #284, #62, #288, #337 ) ) ;
#329 = PERSON_AND_ORGANIZATION ( #277, #246 ) ;
#330 = ORIENTED_EDGE ( 'NONE', *, *, #324, .T. ) ;
#331 =( LENGTH_UNIT ( ) NAMED_UNIT ( * ) SI_UNIT ( .MILLI., .METRE. ) );
#332 = EDGE_LOOP ( 'NONE', ( #20, #113 ) ) ;
#333 = EDGE_CURVE ( 'NONE', #41, #15, #178, .T. ) ;
#334 = APPLICATION_PROTOCOL_DEFINITION ( 'international standard', 'config_control_design', 1994, #314 ) ;
#335 = EDGE_LOOP ( 'NONE', ( #181, #330 ) ) ;
#336 = DIRECTION ( 'NONE',  ( 1.000000000000000000, 1.554312234475208507E-15, 1.456470098279820570E-17 ) ) ;
#337 = ORIENTED_EDGE ( 'NONE', *, *, #81, .F. ) ;
#338 = EDGE_CURVE ( 'NONE', #89, #253, #9, .T. ) ;
#339 = COORDINATED_UNIVERSAL_TIME_OFFSET ( 10, 0, .AHEAD. ) ;
#340 = CARTESIAN_POINT ( 'NONE',  ( -17.49999999999999289, -2.554800919281092531E-14, 2.548822671991862329E-16 ) ) ;
#341 = LINE ( 'NONE', #213, #154 ) ;
#342 = EDGE_LOOP ( 'NONE', ( #61, #116, #120, #292 ) ) ;
#343 = CC_DESIGN_SECURITY_CLASSIFICATION ( #54, ( #254 ) ) ;
#344 = CALENDAR_DATE ( 2026, 3, 3 ) ;
#345 = EDGE_LOOP ( 'NONE', ( #285, #202, #305, #194 ) ) ;
#346 = DIRECTION ( 'NONE',  ( 1.000000000000000000, 1.554312234475208310E-15, 1.172110456741069280E-17 ) ) ;
#347 = DIRECTION ( 'NONE',  ( 1.000000000000000000, 1.554312234475208507E-15, 1.456470098279820570E-17 ) ) ;
#348 = EDGE_CURVE ( 'NONE', #23, #150, #174, .T. ) ;
#349 = CARTESIAN_POINT ( 'NONE',  ( 12.05000000000061533, -1.979671981899855301E-12, 20.00000000000001776 ) ) ;
ENDSEC;
END-ISO-10303-21;
