ISO-10303-21;
HEADER;
FILE_DESCRIPTION (( 'STEP AP203' ),
    '1' );
FILE_NAME ('OEM-20-150-316-S_REV_.step',
    '2026-03-03T07:30:56',
    ( '' ),
    ( '' ),
    'SwSTEP 2.0',
    'SolidWorks 2025',
    '' );
FILE_SCHEMA (( 'CONFIG_CONTROL_DESIGN' ));
ENDSEC;

DATA;
#1 = DIRECTION ( 'NONE',  ( 1.368455531567202955E-48, 1.747184465219799731E-63, 1.000000000000000000 ) ) ;
#2 = DIRECTION ( 'NONE',  ( 0.000000000000000000, 0.000000000000000000, 1.000000000000000000 ) ) ;
#3 = ADVANCED_FACE ( 'NONE', ( #226 ), #93, .T. ) ;
#4 = DIRECTION ( 'NONE',  ( 0.000000000000000000, 0.000000000000000000, 1.000000000000000000 ) ) ;
#5 = DIRECTION ( 'NONE',  ( 1.000000000000000000, 1.276756478318929233E-15, -1.368455531567203107E-48 ) ) ;
#6 = DIRECTION ( 'NONE',  ( 0.000000000000000000, 0.000000000000000000, 1.000000000000000000 ) ) ;
#7 = EDGE_CURVE ( 'NONE', #234, #172, #134, .T. ) ;
#8 = CYLINDRICAL_SURFACE ( 'NONE', #32, 12.05000000000000959 ) ;
#9 = AXIS2_PLACEMENT_3D ( 'NONE', #41, #147, #77 ) ;
#10 = DATE_AND_TIME ( #143, #168 ) ;
#11 = ORIENTED_EDGE ( 'NONE', *, *, #181, .F. ) ;
#12 = VECTOR ( 'NONE', #79, 1000.000000000000114 ) ;
#13 = CALENDAR_DATE ( 2026, 3, 3 ) ;
#14 = PERSON_AND_ORGANIZATION_ROLE ( 'design_supplier' ) ;
#15 = ORIENTED_EDGE ( 'NONE', *, *, #106, .T. ) ;
#16 = PERSON_AND_ORGANIZATION_ROLE ( 'design_owner' ) ;
#17 = VERTEX_POINT ( 'NONE', #46 ) ;
#18 = AXIS2_PLACEMENT_3D ( 'NONE', #223, #193, #270 ) ;
#19 = CYLINDRICAL_SURFACE ( 'NONE', #50, 18.50000000000001776 ) ;
#20 = FACE_OUTER_BOUND ( 'NONE', #342, .T. ) ;
#21 = FACE_BOUND ( 'NONE', #317, .T. ) ;
#22 = VECTOR ( 'NONE', #153, 1000.000000000000000 ) ;
#23 = LOCAL_TIME ( 18, 30, 56.00000000000000000, #259 ) ;
#24 = LINE ( 'NONE', #126, #192 ) ;
#25 = CARTESIAN_POINT ( 'NONE',  ( 17.50000000000000355, 2.234323837058126591E-14, -2.394797180242606327E-47 ) ) ;
#26 = CARTESIAN_POINT ( 'NONE',  ( 0.000000000000000000, 0.000000000000000000, 35.99999999999997868 ) ) ;
#27 = CC_DESIGN_PERSON_AND_ORGANIZATION_ASSIGNMENT ( #280, #14, ( #314 ) ) ;
#28 = CARTESIAN_POINT ( 'NONE',  ( 0.000000000000000000, 0.000000000000000000, 0.000000000000000000 ) ) ;
#29 = CONICAL_SURFACE ( 'NONE', #238, 17.50000000000000711, 0.7853981633974466137 ) ;
#30 = DIRECTION ( 'NONE',  ( 0.000000000000000000, 0.000000000000000000, 1.000000000000000000 ) ) ;
#31 = DIRECTION ( 'NONE',  ( 1.000000000000000000, 1.276756478318929233E-15, -1.368455531567203411E-48 ) ) ;
#32 = AXIS2_PLACEMENT_3D ( 'NONE', #136, #245, #5 ) ;
#33 = ORIENTED_EDGE ( 'NONE', *, *, #315, .F. ) ;
#34 = DATE_AND_TIME ( #13, #156 ) ;
#35 = ORIENTED_EDGE ( 'NONE', *, *, #340, .F. ) ;
#36 = EDGE_LOOP ( 'NONE', ( #167, #261, #258, #33 ) ) ;
#37 = APPROVAL_ROLE ( '' ) ;
#38 = VERTEX_POINT ( 'NONE', #51 ) ;
#39 = VECTOR ( 'NONE', #85, 1000.000000000000000 ) ;
#40 = APPROVAL_STATUS ( 'not_yet_approved' ) ;
#41 = CARTESIAN_POINT ( 'NONE',  ( 0.000000000000000000, 0.000000000000000000, 1.000000000000000888 ) ) ;
#42 = ORIENTED_EDGE ( 'NONE', *, *, #248, .F. ) ;
#43 = ORIENTED_EDGE ( 'NONE', *, *, #44, .F. ) ;
#44 = EDGE_CURVE ( 'NONE', #38, #118, #236, .T. ) ;
#45 = VECTOR ( 'NONE', #322, 1000.000000000000000 ) ;
#46 = CARTESIAN_POINT ( 'NONE',  ( -17.49999999999999645, -2.298161660974071830E-14, 35.99999999999997868 ) ) ;
#47 = DIRECTION ( 'NONE',  ( -0.000000000000000000, -0.000000000000000000, -1.000000000000000000 ) ) ;
#48 = EDGE_CURVE ( 'NONE', #172, #234, #327, .T. ) ;
#49 = DIRECTION ( 'NONE',  ( 1.000000000000000000, 1.276756478318928838E-15, 0.000000000000000000 ) ) ;
#50 = AXIS2_PLACEMENT_3D ( 'NONE', #235, #347, #208 ) ;
#51 = CARTESIAN_POINT ( 'NONE',  ( 17.49999999999999645, 2.518598084820595412E-14, 35.99999999999997868 ) ) ;
#52 = CARTESIAN_POINT ( 'NONE',  ( 18.50000000000001776, 2.588559142732280879E-14, 35.99999999999997868 ) ) ;
#53 = EDGE_CURVE ( 'NONE', #177, #60, #130, .T. ) ;
#54 = CARTESIAN_POINT ( 'NONE',  ( 0.000000000000000000, 0.000000000000000000, 0.000000000000000000 ) ) ;
#55 = AXIS2_PLACEMENT_3D ( 'NONE', #107, #221, #165 ) ;
#56 = CARTESIAN_POINT ( 'NONE',  ( 0.000000000000000000, 0.000000000000000000, 34.99999999999997868 ) ) ;
#57 = FACE_BOUND ( 'NONE', #224, .T. ) ;
#58 = LINE ( 'NONE', #114, #175 ) ;
#59 = EDGE_CURVE ( 'NONE', #206, #199, #144, .T. ) ;
#60 = VERTEX_POINT ( 'NONE', #212 ) ;
#61 = DIRECTION ( 'NONE',  ( 0.000000000000000000, 0.000000000000000000, 1.000000000000000000 ) ) ;
#62 = DATE_TIME_ROLE ( 'creation_date' ) ;
#63 = ORIENTED_EDGE ( 'NONE', *, *, #115, .T. ) ;
#64 = EDGE_CURVE ( 'NONE', #60, #177, #74, .T. ) ;
#65 = PERSON_AND_ORGANIZATION ( #250, #244 ) ;
#66 = ORIENTED_EDGE ( 'NONE', *, *, #239, .T. ) ;
#67 = PERSON_AND_ORGANIZATION ( #250, #244 ) ;
#68 = EDGE_LOOP ( 'NONE', ( #43, #151, #264, #180 ) ) ;
#69 = CONICAL_SURFACE ( 'NONE', #263, 17.50000000000000711, 0.7853981633974466137 ) ;
#70 = ORIENTED_EDGE ( 'NONE', *, *, #123, .F. ) ;
#71 = ORIENTED_EDGE ( 'NONE', *, *, #320, .T. ) ;
#72 = PRODUCT_RELATED_PRODUCT_CATEGORY ( 'detail', '', ( #89 ) ) ;
#73 = CARTESIAN_POINT ( 'NONE',  ( 0.000000000000000000, 0.000000000000000000, 35.99999999999997868 ) ) ;
#74 = CIRCLE ( 'NONE', #349, 12.05000000000000959 ) ;
#75 = DIRECTION ( 'NONE',  ( 0.000000000000000000, 0.000000000000000000, 1.000000000000000000 ) ) ;
#76 = LINE ( 'NONE', #210, #284 ) ;
#77 = DIRECTION ( 'NONE',  ( 1.000000000000000000, 1.276756478318928838E-15, 0.000000000000000000 ) ) ;
#78 = AXIS2_PLACEMENT_3D ( 'NONE', #129, #1, #188 ) ;
#79 = DIRECTION ( 'NONE',  ( 0.7071067811865465735, 9.893987693667179355E-16, -0.7071067811865483499 ) ) ;
#80 = DIRECTION ( 'NONE',  ( 1.000000000000000000, 1.276756478318928838E-15, 0.000000000000000000 ) ) ;
#81 =( LENGTH_UNIT ( ) NAMED_UNIT ( * ) SI_UNIT ( .MILLI., .METRE. ) );
#82 = CLOSED_SHELL ( 'NONE', ( #346, #127, #253, #3, #186, #110, #222, #148, #173, #325 ) ) ;
#83 = CONICAL_SURFACE ( 'NONE', #138, 18.50000000000001776, 0.7853981633974482790 ) ;
#84 = DIRECTION ( 'NONE',  ( 0.7071067811865479058, 9.028031637431702586E-16, 0.7071067811865472397 ) ) ;
#85 = DIRECTION ( 'NONE',  ( 0.000000000000000000, 0.000000000000000000, 1.000000000000000000 ) ) ;
#86 = APPROVAL_STATUS ( 'not_yet_approved' ) ;
#87 = AXIS2_PLACEMENT_3D ( 'NONE', #299, #295, #291 ) ;
#88 = CC_DESIGN_DATE_AND_TIME_ASSIGNMENT ( #276, #62, ( #288 ) ) ;
#89 = PRODUCT ( 'OEM-20-150-316-S_REV_', 'OEM-20-150-316-S_REV_', '', ( #198 ) ) ;
#90 = COORDINATED_UNIVERSAL_TIME_OFFSET ( 10, 0, .AHEAD. ) ;
#91 = VERTEX_POINT ( 'NONE', #25 ) ;
#92 = APPROVAL_STATUS ( 'not_yet_approved' ) ;
#93 = CYLINDRICAL_SURFACE ( 'NONE', #272, 18.50000000000001776 ) ;
#94 = PRODUCT_DEFINITION_SHAPE ( 'NONE', 'NONE',  #288 ) ;
#95 = APPROVAL_DATE_TIME ( #254, #158 ) ;
#96 = ORIENTED_EDGE ( 'NONE', *, *, #53, .F. ) ;
#97 = ORIENTED_EDGE ( 'NONE', *, *, #59, .F. ) ;
#98 = CARTESIAN_POINT ( 'NONE',  ( -18.50000000000000000, -2.361999484890018331E-14, 34.99999999999997868 ) ) ;
#99 = DIRECTION ( 'NONE',  ( 0.000000000000000000, 0.000000000000000000, -1.000000000000000000 ) ) ;
#100 = CC_DESIGN_DATE_AND_TIME_ASSIGNMENT ( #341, #316, ( #164 ) ) ;
#101 = AXIS2_PLACEMENT_3D ( 'NONE', #132, #241, #182 ) ;
#102 = CARTESIAN_POINT ( 'NONE',  ( 0.000000000000000000, 0.000000000000000000, 1.000000000000000888 ) ) ;
#103 = CARTESIAN_POINT ( 'NONE',  ( 18.50000000000000000, 2.588559142732278671E-14, 34.99999999999997868 ) ) ;
#104 = CARTESIAN_POINT ( 'NONE',  ( 12.05000000000000959, 1.538491556374310865E-14, 35.99999999999997868 ) ) ;
#105 = AXIS2_PLACEMENT_3D ( 'NONE', #54, #195, #112 ) ;
#106 = EDGE_CURVE ( 'NONE', #206, #60, #76, .T. ) ;
#107 = CARTESIAN_POINT ( 'NONE',  ( 0.000000000000000000, 0.000000000000000000, 0.000000000000000000 ) ) ;
#108 = DIRECTION ( 'NONE',  ( 1.000000000000000000, 1.276756478318929233E-15, -1.368455531567203107E-48 ) ) ;
#109 = DIRECTION ( 'NONE',  ( -0.7071067811865465735, -9.028031637431686809E-16, -0.7071067811865483499 ) ) ;
#110 = ADVANCED_FACE ( 'NONE', ( #21, #266 ), #269, .T. ) ;
#111 = AXIS2_PLACEMENT_3D ( 'NONE', #102, #4, #49 ) ;
#112 = DIRECTION ( 'NONE',  ( 1.000000000000000000, 1.276756478318928838E-15, -1.368455531567202955E-48 ) ) ;
#113 = CC_DESIGN_APPROVAL ( #196, ( #164 ) ) ;
#114 = CARTESIAN_POINT ( 'NONE',  ( -17.50000000000000711, -2.234323837058126907E-14, 35.99999999999997868 ) ) ;
#115 = EDGE_CURVE ( 'NONE', #17, #38, #302, .T. ) ;
#116 = ORIENTED_EDGE ( 'NONE', *, *, #181, .T. ) ;
#117 = APPROVAL_DATE_TIME ( #10, #262 ) ;
#118 = VERTEX_POINT ( 'NONE', #103 ) ;
#119 = SHAPE_DEFINITION_REPRESENTATION ( #94, #294 ) ;
#120 = ORIENTED_EDGE ( 'NONE', *, *, #211, .F. ) ;
#121 = SECURITY_CLASSIFICATION_LEVEL ( 'unclassified' ) ;
#122 = VERTEX_POINT ( 'NONE', #98 ) ;
#123 = EDGE_CURVE ( 'NONE', #122, #172, #154, .T. ) ;
#124 = PERSON_AND_ORGANIZATION ( #250, #244 ) ;
#125 = ORIENTED_EDGE ( 'NONE', *, *, #48, .F. ) ;
#126 = CARTESIAN_POINT ( 'NONE',  ( -18.50000000000001776, -2.135439827047759885E-14, 1.000000000000000888 ) ) ;
#127 = ADVANCED_FACE ( 'NONE', ( #265 ), #69, .T. ) ;
#128 = FACE_OUTER_BOUND ( 'NONE', #68, .T. ) ;
#129 = CARTESIAN_POINT ( 'NONE',  ( 0.000000000000000000, 0.000000000000000000, 35.99999999999997868 ) ) ;
#130 = CIRCLE ( 'NONE', #343, 12.05000000000000959 ) ;
#131 = DIRECTION ( 'NONE',  ( -0.7071067811865479058, -8.162075581196210040E-16, 0.7071067811865472397 ) ) ;
#132 = CARTESIAN_POINT ( 'NONE',  ( 0.000000000000000000, 0.000000000000000000, 35.99999999999997868 ) ) ;
#133 = LINE ( 'NONE', #301, #202 ) ;
#134 = CIRCLE ( 'NONE', #9, 18.50000000000001776 ) ;
#135 = APPROVAL_PERSON_ORGANIZATION ( #282, #158, #37 ) ;
#136 = CARTESIAN_POINT ( 'NONE',  ( 0.000000000000000000, 0.000000000000000000, 0.000000000000000000 ) ) ;
#137 = DIRECTION ( 'NONE',  ( -0.000000000000000000, -0.000000000000000000, -1.000000000000000000 ) ) ;
#138 = AXIS2_PLACEMENT_3D ( 'NONE', #160, #61, #271 ) ;
#139 = MANIFOLD_SOLID_BREP ( 'Cut-Extrude1', #82 ) ;
#140 = EDGE_LOOP ( 'NONE', ( #171, #35, #257, #216 ) ) ;
#141 = PERSON_AND_ORGANIZATION_ROLE ( 'creator' ) ;
#142 = ORIENTED_EDGE ( 'NONE', *, *, #59, .T. ) ;
#143 = CALENDAR_DATE ( 2026, 3, 3 ) ;
#144 = CIRCLE ( 'NONE', #87, 12.05000000000000959 ) ;
#145 = EDGE_LOOP ( 'NONE', ( #11, #71, #230, #312 ) ) ;
#146 = COORDINATED_UNIVERSAL_TIME_OFFSET ( 10, 0, .AHEAD. ) ;
#147 = DIRECTION ( 'NONE',  ( 0.000000000000000000, 0.000000000000000000, 1.000000000000000000 ) ) ;
#148 = ADVANCED_FACE ( 'NONE', ( #20 ), #183, .T. ) ;
#149 = COORDINATED_UNIVERSAL_TIME_OFFSET ( 10, 0, .AHEAD. ) ;
#150 = ORIENTED_EDGE ( 'NONE', *, *, #273, .F. ) ;
#151 = ORIENTED_EDGE ( 'NONE', *, *, #115, .F. ) ;
#152 = EDGE_CURVE ( 'NONE', #281, #172, #24, .T. ) ;
#153 = DIRECTION ( 'NONE',  ( 0.000000000000000000, 0.000000000000000000, -1.000000000000000000 ) ) ;
#154 = LINE ( 'NONE', #185, #22 ) ;
#155 = DIRECTION ( 'NONE',  ( 1.000000000000000000, 1.276756478318929233E-15, 0.000000000000000000 ) ) ;
#156 = LOCAL_TIME ( 18, 30, 56.00000000000000000, #149 ) ;
#157 = DIRECTION ( 'NONE',  ( 1.000000000000000000, 1.276756478318929233E-15, 0.000000000000000000 ) ) ;
#158 = APPROVAL ( #92, 'UNSPECIFIED' ) ;
#159 = FACE_OUTER_BOUND ( 'NONE', #145, .T. ) ;
#160 = CARTESIAN_POINT ( 'NONE',  ( 0.000000000000000000, 0.000000000000000000, 1.000000000000000888 ) ) ;
#161 = AXIS2_PLACEMENT_3D ( 'NONE', #344, #231, #205 ) ;
#162 =( GEOMETRIC_REPRESENTATION_CONTEXT ( 3 ) GLOBAL_UNCERTAINTY_ASSIGNED_CONTEXT ( ( #278 ) ) GLOBAL_UNIT_ASSIGNED_CONTEXT ( ( #81, #246, #194 ) ) REPRESENTATION_CONTEXT ( 'NONE', 'WORKASPACE' ) );
#163 = CC_DESIGN_PERSON_AND_ORGANIZATION_ASSIGNMENT ( #65, #251, ( #164 ) ) ;
#164 = SECURITY_CLASSIFICATION ( '', '', #121 ) ;
#165 = DIRECTION ( 'NONE',  ( 1.000000000000000000, 1.276756478318929233E-15, -1.368455531567203107E-48 ) ) ;
#166 = DIRECTION ( 'NONE',  ( 1.000000000000000000, 1.276756478318929233E-15, 0.000000000000000000 ) ) ;
#167 = ORIENTED_EDGE ( 'NONE', *, *, #279, .F. ) ;
#168 = LOCAL_TIME ( 18, 30, 56.00000000000000000, #90 ) ;
#169 = EDGE_LOOP ( 'NONE', ( #66, #116, #252, #70 ) ) ;
#170 = APPROVAL_ROLE ( '' ) ;
#171 = ORIENTED_EDGE ( 'NONE', *, *, #106, .F. ) ;
#172 = VERTEX_POINT ( 'NONE', #240 ) ;
#173 = ADVANCED_FACE ( 'NONE', ( #128 ), #29, .T. ) ;
#174 = CALENDAR_DATE ( 2026, 3, 3 ) ;
#175 = VECTOR ( 'NONE', #109, 1000.000000000000114 ) ;
#176 = APPROVAL_PERSON_ORGANIZATION ( #256, #196, #338 ) ;
#177 = VERTEX_POINT ( 'NONE', #104 ) ;
#178 = CALENDAR_DATE ( 2026, 3, 3 ) ;
#179 = ORIENTED_EDGE ( 'NONE', *, *, #190, .F. ) ;
#180 = ORIENTED_EDGE ( 'NONE', *, *, #320, .F. ) ;
#181 = EDGE_CURVE ( 'NONE', #118, #234, #348, .T. ) ;
#182 = DIRECTION ( 'NONE',  ( 1.000000000000000000, 1.276756478318929233E-15, 0.000000000000000000 ) ) ;
#183 = CONICAL_SURFACE ( 'NONE', #111, 18.50000000000001776, 0.7853981633974482790 ) ;
#184 = CARTESIAN_POINT ( 'NONE',  ( 0.000000000000000000, 0.000000000000000000, 0.000000000000000000 ) ) ;
#185 = CARTESIAN_POINT ( 'NONE',  ( -18.50000000000001776, -2.361999484890020540E-14, 35.99999999999997868 ) ) ;
#186 = ADVANCED_FACE ( 'NONE', ( #159 ), #19, .T. ) ;
#187 = DIRECTION ( 'NONE',  ( 1.000000000000000000, 1.276756478318928838E-15, 0.000000000000000000 ) ) ;
#188 = DIRECTION ( 'NONE',  ( 1.000000000000000000, 1.276756478318928838E-15, -1.368455531567202955E-48 ) ) ;
#189 = CARTESIAN_POINT ( 'NONE',  ( 12.05000000000000959, 1.538491556374310865E-14, -1.648988915538481123E-47 ) ) ;
#190 = EDGE_CURVE ( 'NONE', #91, #281, #255, .T. ) ;
#191 = FACE_OUTER_BOUND ( 'NONE', #289, .T. ) ;
#192 = VECTOR ( 'NONE', #131, 1000.000000000000000 ) ;
#193 = DIRECTION ( 'NONE',  ( -0.000000000000000000, -0.000000000000000000, -1.000000000000000000 ) ) ;
#194 =( NAMED_UNIT ( * ) SI_UNIT ( $, .STERADIAN. ) SOLID_ANGLE_UNIT ( ) );
#195 = DIRECTION ( 'NONE',  ( 1.368455531567202955E-48, 1.747184465219799731E-63, 1.000000000000000000 ) ) ;
#196 = APPROVAL ( #86, 'UNSPECIFIED' ) ;
#197 = EDGE_LOOP ( 'NONE', ( #63, #287 ) ) ;
#198 = MECHANICAL_CONTEXT ( 'NONE', #260, 'mechanical' ) ;
#199 = VERTEX_POINT ( 'NONE', #189 ) ;
#200 = DIRECTION ( 'NONE',  ( 0.000000000000000000, 0.000000000000000000, -1.000000000000000000 ) ) ;
#201 = PERSON_AND_ORGANIZATION_ROLE ( 'creator' ) ;
#202 = VECTOR ( 'NONE', #84, 1000.000000000000000 ) ;
#203 = APPROVAL_PERSON_ORGANIZATION ( #285, #262, #170 ) ;
#204 = ORIENTED_EDGE ( 'NONE', *, *, #64, .T. ) ;
#205 = DIRECTION ( 'NONE',  ( 1.000000000000000000, 0.000000000000000000, 0.000000000000000000 ) ) ;
#206 = VERTEX_POINT ( 'NONE', #218 ) ;
#207 = CARTESIAN_POINT ( 'NONE',  ( 0.000000000000000000, 0.000000000000000000, 35.99999999999997868 ) ) ;
#208 = DIRECTION ( 'NONE',  ( -1.000000000000000000, -1.276756478318928838E-15, 0.000000000000000000 ) ) ;
#209 = CIRCLE ( 'NONE', #313, 17.50000000000000355 ) ;
#210 = CARTESIAN_POINT ( 'NONE',  ( -12.05000000000000959, -1.390921617077054507E-14, 1.648988915538481123E-47 ) ) ;
#211 = EDGE_CURVE ( 'NONE', #199, #177, #300, .T. ) ;
#212 = CARTESIAN_POINT ( 'NONE',  ( -12.05000000000000071, -1.390921617077053245E-14, 35.99999999999997868 ) ) ;
#213 = CARTESIAN_POINT ( 'NONE',  ( 17.50000000000000711, 2.448637026908913731E-14, 35.99999999999997868 ) ) ;
#214 = CIRCLE ( 'NONE', #55, 12.05000000000000959 ) ;
#215 = CYLINDRICAL_SURFACE ( 'NONE', #297, 12.05000000000000959 ) ;
#216 = ORIENTED_EDGE ( 'NONE', *, *, #53, .T. ) ;
#217 = DIRECTION ( 'NONE',  ( 1.000000000000000000, 1.276756478318929233E-15, -1.368455531567203411E-48 ) ) ;
#218 = CARTESIAN_POINT ( 'NONE',  ( -12.05000000000000071, -1.390921617077053245E-14, 0.000000000000000000 ) ) ;
#219 = CIRCLE ( 'NONE', #268, 17.50000000000000711 ) ;
#220 = LOCAL_TIME ( 18, 30, 56.00000000000000000, #146 ) ;
#221 = DIRECTION ( 'NONE',  ( 0.000000000000000000, 0.000000000000000000, 1.000000000000000000 ) ) ;
#222 = ADVANCED_FACE ( 'NONE', ( #57, #274 ), #331, .F. ) ;
#223 = CARTESIAN_POINT ( 'NONE',  ( 0.000000000000000000, 0.000000000000000000, 34.99999999999997868 ) ) ;
#224 = EDGE_LOOP ( 'NONE', ( #277, #142 ) ) ;
#225 = AXIS2_PLACEMENT_3D ( 'NONE', #184, #47, #217 ) ;
#226 = FACE_OUTER_BOUND ( 'NONE', #169, .T. ) ;
#227 = APPLICATION_PROTOCOL_DEFINITION ( 'international standard', 'config_control_design', 1994, #298 ) ;
#228 = ORIENTED_EDGE ( 'NONE', *, *, #315, .T. ) ;
#229 = CALENDAR_DATE ( 2026, 3, 3 ) ;
#230 = ORIENTED_EDGE ( 'NONE', *, *, #123, .T. ) ;
#231 = DIRECTION ( 'NONE',  ( 0.000000000000000000, 0.000000000000000000, 1.000000000000000000 ) ) ;
#232 = AXIS2_PLACEMENT_3D ( 'NONE', #326, #319, #187 ) ;
#233 = CC_DESIGN_APPROVAL ( #262, ( #314 ) ) ;
#234 = VERTEX_POINT ( 'NONE', #243 ) ;
#235 = CARTESIAN_POINT ( 'NONE',  ( 0.000000000000000000, 0.000000000000000000, 35.99999999999997868 ) ) ;
#236 = LINE ( 'NONE', #213, #12 ) ;
#237 = DIRECTION ( 'NONE',  ( 0.000000000000000000, 0.000000000000000000, -1.000000000000000000 ) ) ;
#238 = AXIS2_PLACEMENT_3D ( 'NONE', #293, #99, #324 ) ;
#239 = EDGE_CURVE ( 'NONE', #122, #118, #330, .T. ) ;
#240 = CARTESIAN_POINT ( 'NONE',  ( -18.50000000000000000, -2.361999484890018331E-14, 1.000000000000000888 ) ) ;
#241 = DIRECTION ( 'NONE',  ( 0.000000000000000000, 0.000000000000000000, 1.000000000000000000 ) ) ;
#242 = CC_DESIGN_PERSON_AND_ORGANIZATION_ASSIGNMENT ( #310, #141, ( #314 ) ) ;
#243 = CARTESIAN_POINT ( 'NONE',  ( 18.50000000000000000, 2.588559142732278671E-14, 1.000000000000000888 ) ) ;
#244 = ORGANIZATION ( 'UNSPECIFIED', 'UNSPECIFIED', '' ) ;
#245 = DIRECTION ( 'NONE',  ( 0.000000000000000000, 0.000000000000000000, 1.000000000000000000 ) ) ;
#246 =( NAMED_UNIT ( * ) PLANE_ANGLE_UNIT ( ) SI_UNIT ( $, .RADIAN. ) );
#247 = FACE_OUTER_BOUND ( 'NONE', #140, .T. ) ;
#248 = EDGE_CURVE ( 'NONE', #17, #122, #58, .T. ) ;
#249 = CC_DESIGN_APPROVAL ( #158, ( #288 ) ) ;
#250 = PERSON ( 'UNSPECIFIED', 'UNSPECIFIED', 'UNSPECIFIED', ('UNSPECIFIED'), ('UNSPECIFIED'), ('UNSPECIFIED') ) ;
#251 = PERSON_AND_ORGANIZATION_ROLE ( 'classification_officer' ) ;
#252 = ORIENTED_EDGE ( 'NONE', *, *, #7, .T. ) ;
#253 = ADVANCED_FACE ( 'NONE', ( #306 ), #83, .T. ) ;
#254 = DATE_AND_TIME ( #178, #334 ) ;
#255 = CIRCLE ( 'NONE', #225, 17.50000000000000355 ) ;
#256 = PERSON_AND_ORGANIZATION ( #250, #244 ) ;
#257 = ORIENTED_EDGE ( 'NONE', *, *, #211, .T. ) ;
#258 = ORIENTED_EDGE ( 'NONE', *, *, #7, .F. ) ;
#259 = COORDINATED_UNIVERSAL_TIME_OFFSET ( 10, 0, .AHEAD. ) ;
#260 = APPLICATION_CONTEXT ( 'configuration controlled 3d designs of mechanical parts and assemblies' ) ;
#261 = ORIENTED_EDGE ( 'NONE', *, *, #152, .T. ) ;
#262 = APPROVAL ( #40, 'UNSPECIFIED' ) ;
#263 = AXIS2_PLACEMENT_3D ( 'NONE', #207, #237, #267 ) ;
#264 = ORIENTED_EDGE ( 'NONE', *, *, #248, .T. ) ;
#265 = FACE_OUTER_BOUND ( 'NONE', #339, .T. ) ;
#266 = FACE_OUTER_BOUND ( 'NONE', #197, .T. ) ;
#267 = DIRECTION ( 'NONE',  ( -1.000000000000000000, -1.276756478318929233E-15, 0.000000000000000000 ) ) ;
#268 = AXIS2_PLACEMENT_3D ( 'NONE', #26, #30, #166 ) ;
#269 = PLANE ( 'NONE',  #78 ) ;
#270 = DIRECTION ( 'NONE',  ( 1.000000000000000000, 1.276756478318928838E-15, 0.000000000000000000 ) ) ;
#271 = DIRECTION ( 'NONE',  ( 1.000000000000000000, 1.276756478318928838E-15, 0.000000000000000000 ) ) ;
#272 = AXIS2_PLACEMENT_3D ( 'NONE', #311, #200, #286 ) ;
#273 = EDGE_CURVE ( 'NONE', #38, #17, #219, .T. ) ;
#274 = FACE_OUTER_BOUND ( 'NONE', #309, .T. ) ;
#275 = ORIENTED_EDGE ( 'NONE', *, *, #44, .T. ) ;
#276 = DATE_AND_TIME ( #174, #220 ) ;
#277 = ORIENTED_EDGE ( 'NONE', *, *, #340, .T. ) ;
#278 = UNCERTAINTY_MEASURE_WITH_UNIT (LENGTH_MEASURE( 1.000000000000000082E-05 ), #81, 'distance_accuracy_value', 'NONE');
#279 = EDGE_CURVE ( 'NONE', #281, #91, #209, .T. ) ;
#280 = PERSON_AND_ORGANIZATION ( #250, #244 ) ;
#281 = VERTEX_POINT ( 'NONE', #328 ) ;
#282 = PERSON_AND_ORGANIZATION ( #250, #244 ) ;
#283 = ORIENTED_EDGE ( 'NONE', *, *, #190, .T. ) ;
#284 = VECTOR ( 'NONE', #75, 1000.000000000000000 ) ;
#285 = PERSON_AND_ORGANIZATION ( #250, #244 ) ;
#286 = DIRECTION ( 'NONE',  ( -1.000000000000000000, -1.276756478318928838E-15, 0.000000000000000000 ) ) ;
#287 = ORIENTED_EDGE ( 'NONE', *, *, #273, .T. ) ;
#288 = PRODUCT_DEFINITION ( 'UNKNOWN', '', #314, #337 ) ;
#289 = EDGE_LOOP ( 'NONE', ( #97, #15, #204, #120 ) ) ;
#290 = CC_DESIGN_SECURITY_CLASSIFICATION ( #164, ( #314 ) ) ;
#291 = DIRECTION ( 'NONE',  ( 1.000000000000000000, 1.276756478318929233E-15, -1.368455531567203107E-48 ) ) ;
#292 = CC_DESIGN_PERSON_AND_ORGANIZATION_ASSIGNMENT ( #124, #201, ( #288 ) ) ;
#293 = CARTESIAN_POINT ( 'NONE',  ( 0.000000000000000000, 0.000000000000000000, 35.99999999999997868 ) ) ;
#294 = ADVANCED_BREP_SHAPE_REPRESENTATION ( 'OEM-20-150-316-S_REV_', ( #139, #161 ), #162 ) ;
#295 = DIRECTION ( 'NONE',  ( 0.000000000000000000, 0.000000000000000000, 1.000000000000000000 ) ) ;
#296 = DIRECTION ( 'NONE',  ( 0.000000000000000000, 0.000000000000000000, 1.000000000000000000 ) ) ;
#297 = AXIS2_PLACEMENT_3D ( 'NONE', #304, #6, #108 ) ;
#298 = APPLICATION_CONTEXT ( 'configuration controlled 3d designs of mechanical parts and assemblies' ) ;
#299 = CARTESIAN_POINT ( 'NONE',  ( 0.000000000000000000, 0.000000000000000000, 0.000000000000000000 ) ) ;
#300 = LINE ( 'NONE', #329, #39 ) ;
#301 = CARTESIAN_POINT ( 'NONE',  ( 18.50000000000001776, 2.361999484890020540E-14, 1.000000000000000888 ) ) ;
#302 = CIRCLE ( 'NONE', #101, 17.50000000000000711 ) ;
#303 = DIRECTION ( 'NONE',  ( -0.000000000000000000, -0.000000000000000000, -1.000000000000000000 ) ) ;
#304 = CARTESIAN_POINT ( 'NONE',  ( 0.000000000000000000, 0.000000000000000000, 0.000000000000000000 ) ) ;
#305 = ORIENTED_EDGE ( 'NONE', *, *, #64, .F. ) ;
#306 = FACE_OUTER_BOUND ( 'NONE', #36, .T. ) ;
#307 = AXIS2_PLACEMENT_3D ( 'NONE', #56, #303, #80 ) ;
#308 = COORDINATED_UNIVERSAL_TIME_OFFSET ( 10, 0, .AHEAD. ) ;
#309 = EDGE_LOOP ( 'NONE', ( #283, #333 ) ) ;
#310 = PERSON_AND_ORGANIZATION ( #250, #244 ) ;
#311 = CARTESIAN_POINT ( 'NONE',  ( 0.000000000000000000, 0.000000000000000000, 35.99999999999997868 ) ) ;
#312 = ORIENTED_EDGE ( 'NONE', *, *, #48, .T. ) ;
#313 = AXIS2_PLACEMENT_3D ( 'NONE', #28, #137, #31 ) ;
#314 = PRODUCT_DEFINITION_FORMATION_WITH_SPECIFIED_SOURCE ( 'ANY', '', #89, .NOT_KNOWN. ) ;
#315 = EDGE_CURVE ( 'NONE', #91, #234, #133, .T. ) ;
#316 = DATE_TIME_ROLE ( 'classification_date' ) ;
#317 = EDGE_LOOP ( 'NONE', ( #96, #305 ) ) ;
#318 = APPROVAL_DATE_TIME ( #34, #196 ) ;
#319 = DIRECTION ( 'NONE',  ( 0.000000000000000000, 0.000000000000000000, 1.000000000000000000 ) ) ;
#320 = EDGE_CURVE ( 'NONE', #118, #122, #321, .T. ) ;
#321 = CIRCLE ( 'NONE', #307, 18.50000000000001776 ) ;
#322 = DIRECTION ( 'NONE',  ( 0.000000000000000000, 0.000000000000000000, -1.000000000000000000 ) ) ;
#323 = CARTESIAN_POINT ( 'NONE',  ( 0.000000000000000000, 0.000000000000000000, 35.99999999999997868 ) ) ;
#324 = DIRECTION ( 'NONE',  ( -1.000000000000000000, -1.276756478318929233E-15, 0.000000000000000000 ) ) ;
#325 = ADVANCED_FACE ( 'NONE', ( #247 ), #8, .F. ) ;
#326 = CARTESIAN_POINT ( 'NONE',  ( 0.000000000000000000, 0.000000000000000000, 1.000000000000000888 ) ) ;
#327 = CIRCLE ( 'NONE', #232, 18.50000000000001776 ) ;
#328 = CARTESIAN_POINT ( 'NONE',  ( -17.49999999999999289, -2.077725237127548248E-14, 0.000000000000000000 ) ) ;
#329 = CARTESIAN_POINT ( 'NONE',  ( 12.05000000000000959, 1.538491556374310865E-14, -1.648988915538481123E-47 ) ) ;
#330 = CIRCLE ( 'NONE', #18, 18.50000000000001776 ) ;
#331 = PLANE ( 'NONE',  #105 ) ;
#332 = CC_DESIGN_PERSON_AND_ORGANIZATION_ASSIGNMENT ( #67, #16, ( #89 ) ) ;
#333 = ORIENTED_EDGE ( 'NONE', *, *, #279, .T. ) ;
#334 = LOCAL_TIME ( 18, 30, 56.00000000000000000, #308 ) ;
#335 = APPLICATION_PROTOCOL_DEFINITION ( 'international standard', 'config_control_design', 1994, #260 ) ;
#336 = ORIENTED_EDGE ( 'NONE', *, *, #239, .F. ) ;
#337 = DESIGN_CONTEXT ( 'detailed design', #298, 'design' ) ;
#338 = APPROVAL_ROLE ( '' ) ;
#339 = EDGE_LOOP ( 'NONE', ( #150, #275, #336, #42 ) ) ;
#340 = EDGE_CURVE ( 'NONE', #199, #206, #214, .T. ) ;
#341 = DATE_AND_TIME ( #229, #23 ) ;
#342 = EDGE_LOOP ( 'NONE', ( #345, #179, #228, #125 ) ) ;
#343 = AXIS2_PLACEMENT_3D ( 'NONE', #323, #2, #155 ) ;
#344 = CARTESIAN_POINT ( 'NONE',  ( 0.000000000000000000, 0.000000000000000000, 0.000000000000000000 ) ) ;
#345 = ORIENTED_EDGE ( 'NONE', *, *, #152, .F. ) ;
#346 = ADVANCED_FACE ( 'NONE', ( #191 ), #215, .F. ) ;
#347 = DIRECTION ( 'NONE',  ( 0.000000000000000000, 0.000000000000000000, -1.000000000000000000 ) ) ;
#348 = LINE ( 'NONE', #52, #45 ) ;
#349 = AXIS2_PLACEMENT_3D ( 'NONE', #73, #296, #157 ) ;
ENDSEC;
END-ISO-10303-21;
