ISO-10303-21;
HEADER;
FILE_DESCRIPTION (( 'STEP AP203' ),
    '1' );
FILE_NAME ('OEM-25-LR-40-316L_REV_.step',
    '2026-03-03T07:30:02',
    ( '' ),
    ( '' ),
    'SwSTEP 2.0',
    'SolidWorks 2025',
    '' );
FILE_SCHEMA (( 'CONFIG_CONTROL_DESIGN' ));
ENDSEC;

DATA;
#1 = CC_DESIGN_DATE_AND_TIME_ASSIGNMENT ( #211, #22, ( #44 ) ) ;
#2 = CIRCLE ( 'NONE', #212, 13.65000000000010516 ) ;
#3 = PERSON_AND_ORGANIZATION ( #248, #95 ) ;
#4 = VERTEX_POINT ( 'NONE', #7 ) ;
#5 = AXIS2_PLACEMENT_3D ( 'NONE', #197, #210, #229 ) ;
#6 = ORIENTED_EDGE ( 'NONE', *, *, #98, .T. ) ;
#7 = CARTESIAN_POINT ( 'NONE',  ( -21.25000000000001776, 5.386876363943190365E-14, 2.063529856563289455E-15 ) ) ;
#8 = CARTESIAN_POINT ( 'NONE',  ( -51.75000000000011369, 1.573217567613338672E-13, -8.770684966739424781E-31 ) ) ;
#9 = CARTESIAN_POINT ( 'NONE',  ( -3.497308268865258605E-47, -8.425641780528299535E-65, 2.063529856563306021E-15 ) ) ;
#10 = DIRECTION ( 'NONE',  ( -1.694818351060754687E-32, 0.000000000000000000, 1.000000000000000000 ) ) ;
#11 = APPLICATION_PROTOCOL_DEFINITION ( 'international standard', 'config_control_design', 1994, #12 ) ;
#12 = APPLICATION_CONTEXT ( 'configuration controlled 3d designs of mechanical parts and assemblies' ) ;
#13 = AXIS2_PLACEMENT_3D ( 'NONE', #164, #137, #200 ) ;
#14 = CARTESIAN_POINT ( 'NONE',  ( 0.000000000000000000, 38.10000000000002274, 0.000000000000000000 ) ) ;
#15 = DIRECTION ( 'NONE',  ( -1.694818351060754961E-32, -4.083120849320171584E-50, 1.000000000000000000 ) ) ;
#16 = DIRECTION ( 'NONE',  ( 1.694818351060754687E-32, 4.083120849320171584E-50, -1.000000000000000000 ) ) ;
#17 = CIRCLE ( 'NONE', #236, 21.24999999999999645 ) ;
#18 = COORDINATED_UNIVERSAL_TIME_OFFSET ( 10, 0, .AHEAD. ) ;
#19 = APPROVAL_DATE_TIME ( #215, #160 ) ;
#20 = PERSON_AND_ORGANIZATION_ROLE ( 'design_supplier' ) ;
#21 = CIRCLE ( 'NONE', #227, 16.85000000000013287 ) ;
#22 = DATE_TIME_ROLE ( 'creation_date' ) ;
#23 = ORIENTED_EDGE ( 'NONE', *, *, #204, .T. ) ;
#24 = PRODUCT_DEFINITION_SHAPE ( 'NONE', 'NONE',  #44 ) ;
#25 = ORIENTED_EDGE ( 'NONE', *, *, #35, .T. ) ;
#26 = CARTESIAN_POINT ( 'NONE',  ( -38.10000000000002274, 1.110223024625156540E-13, 0.000000000000000000 ) ) ;
#27 = AXIS2_PLACEMENT_3D ( 'NONE', #14, #71, #31 ) ;
#28 = ORIENTED_EDGE ( 'NONE', *, *, #195, .T. ) ;
#29 = CARTESIAN_POINT ( 'NONE',  ( -2.833131030861173358E-47, -6.825519899359719399E-65, 1.671642880836150313E-15 ) ) ;
#30 = CIRCLE ( 'NONE', #108, 24.44999999999999929 ) ;
#31 = DIRECTION ( 'NONE',  ( -1.694818351060754961E-32, 0.000000000000000000, 1.000000000000000000 ) ) ;
#32 = DIRECTION ( 'NONE',  ( -1.000000000000000000, -5.255457905473474090E-34, 1.637040452729150475E-32 ) ) ;
#33 = DIRECTION ( 'NONE',  ( 0.000000000000000000, 0.000000000000000000, 1.000000000000000000 ) ) ;
#34 = DIRECTION ( 'NONE',  ( 1.694818351060754687E-32, 4.083120849320171584E-50, -1.000000000000000000 ) ) ;
#35 = EDGE_CURVE ( 'NONE', #4, #237, #17, .T. ) ;
#36 = APPROVAL_ROLE ( '' ) ;
#37 = AXIS2_PLACEMENT_3D ( 'NONE', #50, #34, #207 ) ;
#38 = PERSON_AND_ORGANIZATION ( #248, #95 ) ;
#39 = PERSON_AND_ORGANIZATION_ROLE ( 'design_owner' ) ;
#40 = AXIS2_PLACEMENT_3D ( 'NONE', #51, #32, #10 ) ;
#41 = EDGE_LOOP ( 'NONE', ( #225, #28, #48, #135 ) ) ;
#42 = EDGE_CURVE ( 'NONE', #224, #99, #162, .T. ) ;
#43 = DIRECTION ( 'NONE',  ( 0.000000000000000000, 0.000000000000000000, 1.000000000000000000 ) ) ;
#44 = PRODUCT_DEFINITION ( 'UNKNOWN', '', #134, #131 ) ;
#45 = ORIENTED_EDGE ( 'NONE', *, *, #98, .F. ) ;
#46 = LOCAL_TIME ( 18, 30, 2.000000000000000000, #253 ) ;
#47 = EDGE_LOOP ( 'NONE', ( #79, #221 ) ) ;
#48 = ORIENTED_EDGE ( 'NONE', *, *, #251, .F. ) ;
#49 = CARTESIAN_POINT ( 'NONE',  ( -38.10000000000002274, 1.110223024625156540E-13, 0.000000000000000000 ) ) ;
#50 = CARTESIAN_POINT ( 'NONE',  ( 0.000000000000000000, 0.000000000000000000, 0.000000000000000000 ) ) ;
#51 = CARTESIAN_POINT ( 'NONE',  ( 0.000000000000000000, 38.10000000000002274, 0.000000000000000000 ) ) ;
#52 = CARTESIAN_POINT ( 'NONE',  ( 0.000000000000000000, 21.25000000000001776, 2.063529856563307205E-15 ) ) ;
#53 = AXIS2_PLACEMENT_3D ( 'NONE', #238, #81, #65 ) ;
#54 = AXIS2_PLACEMENT_3D ( 'NONE', #88, #183, #182 ) ;
#55 = ADVANCED_FACE ( 'NONE', ( #158 ), #149, .T. ) ;
#56 = MANIFOLD_SOLID_BREP ( 'Chs - as 1163-350 33.7 X 3.2 CHS(1)', #208 ) ;
#57 = COORDINATED_UNIVERSAL_TIME_OFFSET ( 10, 0, .AHEAD. ) ;
#58 = APPROVAL_DATE_TIME ( #73, #154 ) ;
#59 = EDGE_CURVE ( 'NONE', #194, #219, #70, .T. ) ;
#60 = ORIENTED_EDGE ( 'NONE', *, *, #157, .F. ) ;
#61 = ORIENTED_EDGE ( 'NONE', *, *, #107, .F. ) ;
#62 = CC_DESIGN_DATE_AND_TIME_ASSIGNMENT ( #90, #112, ( #230 ) ) ;
#63 = DIRECTION ( 'NONE',  ( 0.000000000000000000, 0.000000000000000000, 1.000000000000000000 ) ) ;
#64 = AXIS2_PLACEMENT_3D ( 'NONE', #102, #244, #15 ) ;
#65 = DIRECTION ( 'NONE',  ( -1.000000000000000000, -5.255457905473474090E-34, -1.694818351060754961E-32 ) ) ;
#66 = EDGE_LOOP ( 'NONE', ( #163, #84, #139, #178 ) ) ;
#67 =( NAMED_UNIT ( * ) PLANE_ANGLE_UNIT ( ) SI_UNIT ( $, .RADIAN. ) );
#68 = DIRECTION ( 'NONE',  ( -3.391901413832811557E-15, -1.000000000000000000, -5.752739882002088914E-47 ) ) ;
#69 = TOROIDAL_SURFACE ( 'NONE', #217, 38.10000000000000142, 16.85000000000000497 ) ;
#70 = CIRCLE ( 'NONE', #78, 13.65000000000010516 ) ;
#71 = DIRECTION ( 'NONE',  ( -1.000000000000000000, -5.255457905473474090E-34, 1.637040452729150475E-32 ) ) ;
#72 = PERSON_AND_ORGANIZATION ( #248, #95 ) ;
#73 = DATE_AND_TIME ( #235, #83 ) ;
#74 =( GEOMETRIC_REPRESENTATION_CONTEXT ( 3 ) GLOBAL_UNCERTAINTY_ASSIGNED_CONTEXT ( ( #153 ) ) GLOBAL_UNIT_ASSIGNED_CONTEXT ( ( #246, #67, #126 ) ) REPRESENTATION_CONTEXT ( 'NONE', 'WORKASPACE' ) );
#75 = CALENDAR_DATE ( 2026, 3, 3 ) ;
#76 = ORIENTED_EDGE ( 'NONE', *, *, #204, .F. ) ;
#77 = ADVANCED_FACE ( 'NONE', ( #222 ), #69, .T. ) ;
#78 = AXIS2_PLACEMENT_3D ( 'NONE', #177, #239, #201 ) ;
#79 = ORIENTED_EDGE ( 'NONE', *, *, #251, .T. ) ;
#80 = CARTESIAN_POINT ( 'NONE',  ( -54.95000000000014495, 1.681758412855989311E-13, -9.313026839078872849E-31 ) ) ;
#81 = DIRECTION ( 'NONE',  ( 1.694818351060754687E-32, 4.083120849320171584E-50, -1.000000000000000000 ) ) ;
#82 = VERTEX_POINT ( 'NONE', #80 ) ;
#83 = LOCAL_TIME ( 18, 30, 2.000000000000000000, #18 ) ;
#84 = ORIENTED_EDGE ( 'NONE', *, *, #228, .T. ) ;
#85 = EDGE_CURVE ( 'NONE', #120, #237, #91, .T. ) ;
#86 = CARTESIAN_POINT ( 'NONE',  ( -24.45000000000002061, 6.472284816369707481E-14, 1.671642880836136311E-15 ) ) ;
#87 = EDGE_CURVE ( 'NONE', #224, #219, #30, .T. ) ;
#88 = CARTESIAN_POINT ( 'NONE',  ( 0.000000000000000000, 0.000000000000000000, 0.000000000000000000 ) ) ;
#89 = SECURITY_CLASSIFICATION_LEVEL ( 'unclassified' ) ;
#90 = DATE_AND_TIME ( #174, #150 ) ;
#91 = CIRCLE ( 'NONE', #13, 16.85000000000013287 ) ;
#92 = ORIENTED_EDGE ( 'NONE', *, *, #42, .F. ) ;
#93 = FACE_OUTER_BOUND ( 'NONE', #41, .T. ) ;
#94 = DIRECTION ( 'NONE',  ( -1.000000000000000000, 0.000000000000000000, -1.812639947658575323E-32 ) ) ;
#95 = ORGANIZATION ( 'UNSPECIFIED', 'UNSPECIFIED', '' ) ;
#96 = AXIS2_PLACEMENT_3D ( 'NONE', #202, #209, #143 ) ;
#97 = EDGE_LOOP ( 'NONE', ( #76, #45, #25, #133 ) ) ;
#98 = EDGE_CURVE ( 'NONE', #4, #82, #21, .T. ) ;
#99 = VERTEX_POINT ( 'NONE', #8 ) ;
#100 = ADVANCED_FACE ( 'NONE', ( #93 ), #234, .F. ) ;
#101 = CC_DESIGN_PERSON_AND_ORGANIZATION_ASSIGNMENT ( #190, #20, ( #134 ) ) ;
#102 = CARTESIAN_POINT ( 'NONE',  ( 0.000000000000000000, 38.10000000000002274, 0.000000000000000000 ) ) ;
#103 = CIRCLE ( 'NONE', #37, 51.75000000000000711 ) ;
#104 = DIRECTION ( 'NONE',  ( -1.694818351060754961E-32, -4.083120849320171584E-50, 1.000000000000000000 ) ) ;
#105 = DIRECTION ( 'NONE',  ( -3.391901413832811557E-15, -1.000000000000000000, -2.622349877997514705E-34 ) ) ;
#106 = APPROVAL ( #252, 'UNSPECIFIED' ) ;
#107 = EDGE_CURVE ( 'NONE', #82, #4, #141, .T. ) ;
#108 = AXIS2_PLACEMENT_3D ( 'NONE', #29, #226, #179 ) ;
#109 = SHAPE_DEFINITION_REPRESENTATION ( #24, #216 ) ;
#110 = CC_DESIGN_PERSON_AND_ORGANIZATION_ASSIGNMENT ( #38, #232, ( #230 ) ) ;
#111 = CALENDAR_DATE ( 2026, 3, 3 ) ;
#112 = DATE_TIME_ROLE ( 'classification_date' ) ;
#113 = CIRCLE ( 'NONE', #27, 13.65000000000010516 ) ;
#114 = EDGE_LOOP ( 'NONE', ( #92, #161 ) ) ;
#115 = CARTESIAN_POINT ( 'NONE',  ( -38.10000000000002274, 1.110223024625156540E-13, 0.000000000000000000 ) ) ;
#116 = DIRECTION ( 'NONE',  ( 1.694818351060754687E-32, 4.083120849320171584E-50, -1.000000000000000000 ) ) ;
#117 = AXIS2_PLACEMENT_3D ( 'NONE', #249, #68, #104 ) ;
#118 = PRODUCT_RELATED_PRODUCT_CATEGORY ( 'detail', '', ( #191 ) ) ;
#119 = DIRECTION ( 'NONE',  ( -1.000000000000000000, -5.255457905473474090E-34, -1.694818351060754961E-32 ) ) ;
#120 = VERTEX_POINT ( 'NONE', #245 ) ;
#121 = FACE_OUTER_BOUND ( 'NONE', #159, .T. ) ;
#122 = DIRECTION ( 'NONE',  ( -1.000000000000000000, 0.000000000000000000, -1.694818351060754961E-32 ) ) ;
#123 = FACE_BOUND ( 'NONE', #114, .T. ) ;
#124 = FACE_OUTER_BOUND ( 'NONE', #223, .T. ) ;
#125 = CC_DESIGN_APPROVAL ( #154, ( #44 ) ) ;
#126 =( NAMED_UNIT ( * ) SI_UNIT ( $, .STERADIAN. ) SOLID_ANGLE_UNIT ( ) );
#127 = APPROVAL_DATE_TIME ( #151, #106 ) ;
#128 = ADVANCED_FACE ( 'NONE', ( #166 ), #250, .F. ) ;
#129 = PERSON_AND_ORGANIZATION ( #248, #95 ) ;
#130 = APPROVAL_STATUS ( 'not_yet_approved' ) ;
#131 = DESIGN_CONTEXT ( 'detailed design', #145, 'design' ) ;
#132 = COORDINATED_UNIVERSAL_TIME_OFFSET ( 10, 0, .AHEAD. ) ;
#133 = ORIENTED_EDGE ( 'NONE', *, *, #157, .T. ) ;
#134 = PRODUCT_DEFINITION_FORMATION_WITH_SPECIFIED_SOURCE ( 'ANY', '', #191, .NOT_KNOWN. ) ;
#135 = ORIENTED_EDGE ( 'NONE', *, *, #87, .F. ) ;
#136 = DIRECTION ( 'NONE',  ( -3.391901413832811557E-15, -1.000000000000000000, -2.622349877997514705E-34 ) ) ;
#137 = DIRECTION ( 'NONE',  ( -1.000000000000000000, -5.255457905473474090E-34, 1.637040452729150475E-32 ) ) ;
#138 = CARTESIAN_POINT ( 'NONE',  ( 0.000000000000000000, 0.000000000000000000, 0.000000000000000000 ) ) ;
#139 = ORIENTED_EDGE ( 'NONE', *, *, #87, .T. ) ;
#140 = ORIENTED_EDGE ( 'NONE', *, *, #85, .T. ) ;
#141 = CIRCLE ( 'NONE', #173, 16.85000000000013287 ) ;
#142 = CARTESIAN_POINT ( 'NONE',  ( 0.000000000000000000, 24.45000000000002061, 1.671642880836153666E-15 ) ) ;
#143 = DIRECTION ( 'NONE',  ( -1.000000000000000000, -5.255457905473474090E-34, -1.694818351060754687E-32 ) ) ;
#144 = PLANE ( 'NONE',  #117 ) ;
#145 = APPLICATION_CONTEXT ( 'configuration controlled 3d designs of mechanical parts and assemblies' ) ;
#146 = MECHANICAL_CONTEXT ( 'NONE', #12, 'mechanical' ) ;
#147 = PERSON_AND_ORGANIZATION_ROLE ( 'creator' ) ;
#148 = CALENDAR_DATE ( 2026, 3, 3 ) ;
#149 = TOROIDAL_SURFACE ( 'NONE', #53, 38.10000000000000142, 16.85000000000000497 ) ;
#150 = LOCAL_TIME ( 18, 30, 2.000000000000000000, #57 ) ;
#151 = DATE_AND_TIME ( #148, #181 ) ;
#152 = APPLICATION_PROTOCOL_DEFINITION ( 'international standard', 'config_control_design', 1994, #145 ) ;
#153 = UNCERTAINTY_MEASURE_WITH_UNIT (LENGTH_MEASURE( 1.000000000000000082E-05 ), #246, 'distance_accuracy_value', 'NONE');
#154 = APPROVAL ( #130, 'UNSPECIFIED' ) ;
#155 = PERSON_AND_ORGANIZATION ( #248, #95 ) ;
#156 = CC_DESIGN_SECURITY_CLASSIFICATION ( #230, ( #134 ) ) ;
#157 = EDGE_CURVE ( 'NONE', #237, #120, #188, .T. ) ;
#158 = FACE_OUTER_BOUND ( 'NONE', #97, .T. ) ;
#159 = EDGE_LOOP ( 'NONE', ( #6, #242 ) ) ;
#160 = APPROVAL ( #218, 'UNSPECIFIED' ) ;
#161 = ORIENTED_EDGE ( 'NONE', *, *, #228, .F. ) ;
#162 = CIRCLE ( 'NONE', #198, 13.65000000000010516 ) ;
#163 = ORIENTED_EDGE ( 'NONE', *, *, #195, .F. ) ;
#164 = CARTESIAN_POINT ( 'NONE',  ( 0.000000000000000000, 38.10000000000002274, 0.000000000000000000 ) ) ;
#165 = CARTESIAN_POINT ( 'NONE',  ( -38.10000000000002274, 1.110223024625156540E-13, 0.000000000000000000 ) ) ;
#166 = FACE_OUTER_BOUND ( 'NONE', #66, .T. ) ;
#167 = AXIS2_PLACEMENT_3D ( 'NONE', #186, #16, #122 ) ;
#168 = CC_DESIGN_PERSON_AND_ORGANIZATION_ASSIGNMENT ( #189, #233, ( #44 ) ) ;
#169 = ADVANCED_FACE ( 'NONE', ( #187, #124 ), #231, .F. ) ;
#170 = CC_DESIGN_APPROVAL ( #160, ( #230 ) ) ;
#171 = APPROVAL_ROLE ( '' ) ;
#172 = APPROVAL_ROLE ( '' ) ;
#173 = AXIS2_PLACEMENT_3D ( 'NONE', #115, #247, #205 ) ;
#174 = CALENDAR_DATE ( 2026, 3, 3 ) ;
#175 = ADVANCED_FACE ( 'NONE', ( #123, #121 ), #144, .T. ) ;
#176 = CIRCLE ( 'NONE', #167, 54.95000000000000284 ) ;
#177 = CARTESIAN_POINT ( 'NONE',  ( 0.000000000000000000, 38.10000000000002274, 0.000000000000000000 ) ) ;
#178 = ORIENTED_EDGE ( 'NONE', *, *, #59, .F. ) ;
#179 = DIRECTION ( 'NONE',  ( -1.000000000000000000, 0.000000000000000000, -1.575402817494671482E-32 ) ) ;
#180 = ORIENTED_EDGE ( 'NONE', *, *, #85, .F. ) ;
#181 = LOCAL_TIME ( 18, 30, 2.000000000000000000, #132 ) ;
#182 = DIRECTION ( 'NONE',  ( 1.000000000000000000, 0.000000000000000000, 0.000000000000000000 ) ) ;
#183 = DIRECTION ( 'NONE',  ( 0.000000000000000000, 0.000000000000000000, 1.000000000000000000 ) ) ;
#184 = CARTESIAN_POINT ( 'NONE',  ( -7.173700040971414746E-33, 51.75000000000026290, 2.113015039523199450E-48 ) ) ;
#185 = CC_DESIGN_PERSON_AND_ORGANIZATION_ASSIGNMENT ( #129, #39, ( #191 ) ) ;
#186 = CARTESIAN_POINT ( 'NONE',  ( 0.000000000000000000, 0.000000000000000000, 0.000000000000000000 ) ) ;
#187 = FACE_BOUND ( 'NONE', #47, .T. ) ;
#188 = CIRCLE ( 'NONE', #40, 16.85000000000013287 ) ;
#189 = PERSON_AND_ORGANIZATION ( #248, #95 ) ;
#190 = PERSON_AND_ORGANIZATION ( #248, #95 ) ;
#191 = PRODUCT ( 'OEM-25-LR-40-316L_REV_', 'OEM-25-LR-40-316L_REV_', '', ( #146 ) ) ;
#192 = LOCAL_TIME ( 18, 30, 2.000000000000000000, #214 ) ;
#193 = PERSON_AND_ORGANIZATION ( #248, #95 ) ;
#194 = VERTEX_POINT ( 'NONE', #184 ) ;
#195 = EDGE_CURVE ( 'NONE', #99, #194, #103, .T. ) ;
#196 = DIRECTION ( 'NONE',  ( -3.391901413832811557E-15, -1.000000000000000000, -2.622349877997514705E-34 ) ) ;
#197 = CARTESIAN_POINT ( 'NONE',  ( 0.000000000000000000, 0.000000000000000000, 0.000000000000000000 ) ) ;
#198 = AXIS2_PLACEMENT_3D ( 'NONE', #26, #136, #63 ) ;
#199 = ORIENTED_EDGE ( 'NONE', *, *, #35, .F. ) ;
#200 = DIRECTION ( 'NONE',  ( -1.694818351060754687E-32, 0.000000000000000000, 1.000000000000000000 ) ) ;
#201 = DIRECTION ( 'NONE',  ( -1.694818351060754961E-32, 0.000000000000000000, 1.000000000000000000 ) ) ;
#202 = CARTESIAN_POINT ( 'NONE',  ( 0.000000000000000000, 0.000000000000000000, 0.000000000000000000 ) ) ;
#203 = APPROVAL_PERSON_ORGANIZATION ( #155, #106, #171 ) ;
#204 = EDGE_CURVE ( 'NONE', #82, #120, #176, .T. ) ;
#205 = DIRECTION ( 'NONE',  ( 0.000000000000000000, 0.000000000000000000, 1.000000000000000000 ) ) ;
#206 = CC_DESIGN_PERSON_AND_ORGANIZATION_ASSIGNMENT ( #193, #147, ( #134 ) ) ;
#207 = DIRECTION ( 'NONE',  ( -1.000000000000000000, 0.000000000000000000, -1.694818351060754414E-32 ) ) ;
#208 = CLOSED_SHELL ( 'NONE', ( #77, #100, #128, #55, #175, #169 ) ) ;
#209 = DIRECTION ( 'NONE',  ( 1.694818351060754687E-32, 4.083120849320171584E-50, -1.000000000000000000 ) ) ;
#210 = DIRECTION ( 'NONE',  ( 1.694818351060754687E-32, 4.083120849320171584E-50, -1.000000000000000000 ) ) ;
#211 = DATE_AND_TIME ( #75, #192 ) ;
#212 = AXIS2_PLACEMENT_3D ( 'NONE', #165, #105, #33 ) ;
#213 = CC_DESIGN_APPROVAL ( #106, ( #134 ) ) ;
#214 = COORDINATED_UNIVERSAL_TIME_OFFSET ( 10, 0, .AHEAD. ) ;
#215 = DATE_AND_TIME ( #111, #46 ) ;
#216 = ADVANCED_BREP_SHAPE_REPRESENTATION ( 'OEM-25-LR-40-316L_REV_', ( #56, #54 ), #74 ) ;
#217 = AXIS2_PLACEMENT_3D ( 'NONE', #138, #243, #119 ) ;
#218 = APPROVAL_STATUS ( 'not_yet_approved' ) ;
#219 = VERTEX_POINT ( 'NONE', #142 ) ;
#220 = APPROVAL_PERSON_ORGANIZATION ( #72, #160, #36 ) ;
#221 = ORIENTED_EDGE ( 'NONE', *, *, #59, .T. ) ;
#222 = FACE_OUTER_BOUND ( 'NONE', #240, .T. ) ;
#223 = EDGE_LOOP ( 'NONE', ( #60, #180 ) ) ;
#224 = VERTEX_POINT ( 'NONE', #86 ) ;
#225 = ORIENTED_EDGE ( 'NONE', *, *, #42, .T. ) ;
#226 = DIRECTION ( 'NONE',  ( 1.694818351060754687E-32, 4.083120849320171584E-50, -1.000000000000000000 ) ) ;
#227 = AXIS2_PLACEMENT_3D ( 'NONE', #49, #196, #43 ) ;
#228 = EDGE_CURVE ( 'NONE', #99, #224, #2, .T. ) ;
#229 = DIRECTION ( 'NONE',  ( -1.000000000000000000, -5.255457905473474090E-34, -1.694818351060754687E-32 ) ) ;
#230 = SECURITY_CLASSIFICATION ( '', '', #89 ) ;
#231 = PLANE ( 'NONE',  #64 ) ;
#232 = PERSON_AND_ORGANIZATION_ROLE ( 'classification_officer' ) ;
#233 = PERSON_AND_ORGANIZATION_ROLE ( 'creator' ) ;
#234 = TOROIDAL_SURFACE ( 'NONE', #5, 38.10000000000000142, 13.65000000000000213 ) ;
#235 = CALENDAR_DATE ( 2026, 3, 3 ) ;
#236 = AXIS2_PLACEMENT_3D ( 'NONE', #9, #116, #94 ) ;
#237 = VERTEX_POINT ( 'NONE', #52 ) ;
#238 = CARTESIAN_POINT ( 'NONE',  ( 0.000000000000000000, 0.000000000000000000, 0.000000000000000000 ) ) ;
#239 = DIRECTION ( 'NONE',  ( -1.000000000000000000, -5.255457905473474090E-34, 1.637040452729150475E-32 ) ) ;
#240 = EDGE_LOOP ( 'NONE', ( #61, #23, #140, #199 ) ) ;
#241 = APPROVAL_PERSON_ORGANIZATION ( #3, #154, #172 ) ;
#242 = ORIENTED_EDGE ( 'NONE', *, *, #107, .T. ) ;
#243 = DIRECTION ( 'NONE',  ( 1.694818351060754687E-32, 4.083120849320171584E-50, -1.000000000000000000 ) ) ;
#244 = DIRECTION ( 'NONE',  ( -1.000000000000000000, -5.255457905473474090E-34, -1.694818351060754961E-32 ) ) ;
#245 = CARTESIAN_POINT ( 'NONE',  ( -8.855446570722942603E-33, 54.95000000000028706, 2.243674906701445898E-48 ) ) ;
#246 =( LENGTH_UNIT ( ) NAMED_UNIT ( * ) SI_UNIT ( .MILLI., .METRE. ) );
#247 = DIRECTION ( 'NONE',  ( -3.391901413832811557E-15, -1.000000000000000000, -2.622349877997514705E-34 ) ) ;
#248 = PERSON ( 'UNSPECIFIED', 'UNSPECIFIED', 'UNSPECIFIED', ('UNSPECIFIED'), ('UNSPECIFIED'), ('UNSPECIFIED') ) ;
#249 = CARTESIAN_POINT ( 'NONE',  ( -38.10000000000002274, 1.110223024625156540E-13, 0.000000000000000000 ) ) ;
#250 = TOROIDAL_SURFACE ( 'NONE', #96, 38.10000000000000142, 13.65000000000000213 ) ;
#251 = EDGE_CURVE ( 'NONE', #219, #194, #113, .T. ) ;
#252 = APPROVAL_STATUS ( 'not_yet_approved' ) ;
#253 = COORDINATED_UNIVERSAL_TIME_OFFSET ( 10, 0, .AHEAD. ) ;
ENDSEC;
END-ISO-10303-21;
