ISO-10303-21;
HEADER;
FILE_DESCRIPTION (( 'STEP AP203' ),
    '1' );
FILE_NAME ('OEM-3_8-BSPP-3000-316L_REV_.step',
    '2026-02-06T22:18:29',
    ( '' ),
    ( '' ),
    'SwSTEP 2.0',
    'SolidWorks 2025',
    '' );
FILE_SCHEMA (( 'CONFIG_CONTROL_DESIGN' ));
ENDSEC;

DATA;
#1 = APPROVAL_PERSON_ORGANIZATION ( #178, #129, #23 ) ;
#2 = VERTEX_POINT ( 'NONE', #165 ) ;
#3 = EDGE_CURVE ( 'NONE', #65, #231, #168, .T. ) ;
#4 = VERTEX_POINT ( 'NONE', #30 ) ;
#5 = ORIENTED_EDGE ( 'NONE', *, *, #247, .T. ) ;
#6 = ORGANIZATION ( 'UNSPECIFIED', 'UNSPECIFIED', '' ) ;
#7 = CARTESIAN_POINT ( 'NONE',  ( 0.5000000000000038858, 0.000000000000000000, 0.000000000000000000 ) ) ;
#8 = PRODUCT_DEFINITION ( 'UNKNOWN', '', #198, #171 ) ;
#9 = ORIENTED_EDGE ( 'NONE', *, *, #293, .T. ) ;
#10 = DIRECTION ( 'NONE',  ( 0.000000000000000000, 0.000000000000000000, -1.000000000000000000 ) ) ;
#11 = DIRECTION ( 'NONE',  ( 0.000000000000000000, 0.000000000000000000, 1.000000000000000000 ) ) ;
#12 = DIRECTION ( 'NONE',  ( 1.000000000000000000, -0.000000000000000000, -0.000000000000000000 ) ) ;
#13 = FACE_OUTER_BOUND ( 'NONE', #299, .T. ) ;
#14 = FACE_OUTER_BOUND ( 'NONE', #19, .T. ) ;
#15 = AXIS2_PLACEMENT_3D ( 'NONE', #291, #32, #268 ) ;
#16 = EDGE_CURVE ( 'NONE', #2, #250, #74, .T. ) ;
#17 = PERSON_AND_ORGANIZATION ( #214, #6 ) ;
#18 = ORIENTED_EDGE ( 'NONE', *, *, #279, .F. ) ;
#19 = EDGE_LOOP ( 'NONE', ( #255, #186, #40, #226 ) ) ;
#20 = PERSON_AND_ORGANIZATION_ROLE ( 'design_supplier' ) ;
#21 = EDGE_LOOP ( 'NONE', ( #46, #272 ) ) ;
#22 = DATE_TIME_ROLE ( 'classification_date' ) ;
#23 = APPROVAL_ROLE ( '' ) ;
#24 = CC_DESIGN_SECURITY_CLASSIFICATION ( #262, ( #198 ) ) ;
#25 = FACE_OUTER_BOUND ( 'NONE', #145, .T. ) ;
#26 = DIRECTION ( 'NONE',  ( -1.000000000000000000, -0.000000000000000000, -0.000000000000000000 ) ) ;
#27 = LINE ( 'NONE', #216, #106 ) ;
#28 = CC_DESIGN_PERSON_AND_ORGANIZATION_ASSIGNMENT ( #107, #20, ( #198 ) ) ;
#29 = FACE_OUTER_BOUND ( 'NONE', #271, .T. ) ;
#30 = CARTESIAN_POINT ( 'NONE',  ( 0.000000000000000000, 0.000000000000000000, -10.49999999999999112 ) ) ;
#31 = DIRECTION ( 'NONE',  ( 0.000000000000000000, 0.000000000000000000, -1.000000000000000000 ) ) ;
#32 = DIRECTION ( 'NONE',  ( 1.000000000000000000, 0.000000000000000000, 0.000000000000000000 ) ) ;
#33 = DIRECTION ( 'NONE',  ( -1.000000000000000000, -0.000000000000000000, -0.000000000000000000 ) ) ;
#34 = MECHANICAL_CONTEXT ( 'NONE', #234, 'mechanical' ) ;
#35 = CIRCLE ( 'NONE', #297, 7.500000000000000000 ) ;
#36 = APPROVAL_DATE_TIME ( #200, #274 ) ;
#37 = VERTEX_POINT ( 'NONE', #72 ) ;
#38 = AXIS2_PLACEMENT_3D ( 'NONE', #287, #169, #188 ) ;
#39 = EDGE_CURVE ( 'NONE', #87, #91, #187, .T. ) ;
#40 = ORIENTED_EDGE ( 'NONE', *, *, #118, .T. ) ;
#41 = PERSON_AND_ORGANIZATION_ROLE ( 'classification_officer' ) ;
#42 = LOCAL_TIME ( 9, 18, 29.00000000000000000, #88 ) ;
#43 = PERSON_AND_ORGANIZATION ( #214, #6 ) ;
#44 = ORIENTED_EDGE ( 'NONE', *, *, #16, .T. ) ;
#45 = PERSON_AND_ORGANIZATION ( #214, #6 ) ;
#46 = ORIENTED_EDGE ( 'NONE', *, *, #132, .F. ) ;
#47 = APPLICATION_CONTEXT ( 'configuration controlled 3d designs of mechanical parts and assemblies' ) ;
#48 = CARTESIAN_POINT ( 'NONE',  ( 19.00000000000000000, 0.000000000000000000, 7.500000000000000000 ) ) ;
#49 = CIRCLE ( 'NONE', #205, 10.49999999999999112 ) ;
#50 = PLANE ( 'NONE',  #209 ) ;
#51 = DIRECTION ( 'NONE',  ( 1.000000000000000000, 0.000000000000000000, 0.000000000000000000 ) ) ;
#52 = CYLINDRICAL_SURFACE ( 'NONE', #103, 7.500000000000000000 ) ;
#53 = LINE ( 'NONE', #192, #157 ) ;
#54 = ADVANCED_BREP_SHAPE_REPRESENTATION ( 'OEM-3_8-BSPP-3000-316L_REV_', ( #219, #116 ), #155 ) ;
#55 = PLANE ( 'NONE',  #227 ) ;
#56 = CYLINDRICAL_SURFACE ( 'NONE', #281, 7.500000000000000000 ) ;
#57 = VECTOR ( 'NONE', #26, 1000.000000000000000 ) ;
#58 = LINE ( 'NONE', #78, #77 ) ;
#59 = FACE_OUTER_BOUND ( 'NONE', #164, .T. ) ;
#60 = ADVANCED_FACE ( 'NONE', ( #142, #237 ), #50, .F. ) ;
#61 = APPLICATION_PROTOCOL_DEFINITION ( 'international standard', 'config_control_design', 1994, #234 ) ;
#62 = EDGE_CURVE ( 'NONE', #65, #250, #27, .T. ) ;
#63 = ORIENTED_EDGE ( 'NONE', *, *, #3, .F. ) ;
#64 = CALENDAR_DATE ( 2026, 7, 2 ) ;
#65 = VERTEX_POINT ( 'NONE', #256 ) ;
#66 = APPROVAL_ROLE ( '' ) ;
#67 = AXIS2_PLACEMENT_3D ( 'NONE', #284, #75, #98 ) ;
#68 = LOCAL_TIME ( 9, 18, 29.00000000000000000, #183 ) ;
#69 = ORIENTED_EDGE ( 'NONE', *, *, #3, .T. ) ;
#70 = EDGE_CURVE ( 'NONE', #4, #250, #53, .T. ) ;
#71 = ORIENTED_EDGE ( 'NONE', *, *, #62, .T. ) ;
#72 = CARTESIAN_POINT ( 'NONE',  ( 0.000000000000000000, 0.000000000000000000, 7.500000000000000000 ) ) ;
#73 = CARTESIAN_POINT ( 'NONE',  ( 19.00000000000000000, 0.000000000000000000, 0.000000000000000000 ) ) ;
#74 = CIRCLE ( 'NONE', #111, 11.00000000000000000 ) ;
#75 = DIRECTION ( 'NONE',  ( 1.000000000000000000, 0.000000000000000000, 0.000000000000000000 ) ) ;
#76 = FACE_OUTER_BOUND ( 'NONE', #130, .T. ) ;
#77 = VECTOR ( 'NONE', #173, 1000.000000000000000 ) ;
#78 = CARTESIAN_POINT ( 'NONE',  ( 19.00000000000000000, 9.184850993605147944E-16, -7.500000000000000000 ) ) ;
#79 = DIRECTION ( 'NONE',  ( 1.000000000000000000, -0.000000000000000000, -0.000000000000000000 ) ) ;
#80 = EDGE_CURVE ( 'NONE', #250, #2, #194, .T. ) ;
#81 = CONICAL_SURFACE ( 'NONE', #258, 11.00000000000000000, 0.7853981633974533860 ) ;
#82 = CARTESIAN_POINT ( 'NONE',  ( 0.5000000000000038858, 0.000000000000000000, 0.000000000000000000 ) ) ;
#83 = FACE_OUTER_BOUND ( 'NONE', #251, .T. ) ;
#84 = DATE_AND_TIME ( #135, #246 ) ;
#85 = CALENDAR_DATE ( 2026, 7, 2 ) ;
#86 = APPROVAL_DATE_TIME ( #252, #236 ) ;
#87 = VERTEX_POINT ( 'NONE', #212 ) ;
#88 = COORDINATED_UNIVERSAL_TIME_OFFSET ( 10, 0, .AHEAD. ) ;
#89 = ORIENTED_EDGE ( 'NONE', *, *, #293, .F. ) ;
#90 = EDGE_CURVE ( 'NONE', #231, #65, #218, .T. ) ;
#91 = VERTEX_POINT ( 'NONE', #48 ) ;
#92 = CC_DESIGN_APPROVAL ( #274, ( #198 ) ) ;
#93 = ORIENTED_EDGE ( 'NONE', *, *, #244, .T. ) ;
#94 = DIRECTION ( 'NONE',  ( 0.000000000000000000, 0.000000000000000000, -1.000000000000000000 ) ) ;
#95 = ADVANCED_FACE ( 'NONE', ( #76 ), #215, .T. ) ;
#96 = DIRECTION ( 'NONE',  ( 0.000000000000000000, 0.000000000000000000, -1.000000000000000000 ) ) ;
#97 = CIRCLE ( 'NONE', #163, 10.49999999999999112 ) ;
#98 = DIRECTION ( 'NONE',  ( 0.000000000000000000, 0.000000000000000000, -1.000000000000000000 ) ) ;
#99 = ORIENTED_EDGE ( 'NONE', *, *, #62, .F. ) ;
#100 = DIRECTION ( 'NONE',  ( -1.000000000000000000, -0.000000000000000000, -0.000000000000000000 ) ) ;
#101 = CARTESIAN_POINT ( 'NONE',  ( 0.000000000000000000, 0.000000000000000000, 0.000000000000000000 ) ) ;
#102 = DIRECTION ( 'NONE',  ( 0.000000000000000000, 0.000000000000000000, -1.000000000000000000 ) ) ;
#103 = AXIS2_PLACEMENT_3D ( 'NONE', #238, #100, #193 ) ;
#104 =( NAMED_UNIT ( * ) SI_UNIT ( $, .STERADIAN. ) SOLID_ANGLE_UNIT ( ) );
#105 = CARTESIAN_POINT ( 'NONE',  ( 19.00000000000000000, 0.000000000000000000, 11.00000000000000000 ) ) ;
#106 = VECTOR ( 'NONE', #233, 1000.000000000000000 ) ;
#107 = PERSON_AND_ORGANIZATION ( #214, #6 ) ;
#108 = ORIENTED_EDGE ( 'NONE', *, *, #127, .F. ) ;
#109 = PERSON_AND_ORGANIZATION_ROLE ( 'design_owner' ) ;
#110 = ORIENTED_EDGE ( 'NONE', *, *, #112, .T. ) ;
#111 = AXIS2_PLACEMENT_3D ( 'NONE', #117, #283, #94 ) ;
#112 = EDGE_CURVE ( 'NONE', #115, #2, #123, .T. ) ;
#113 = ORIENTED_EDGE ( 'NONE', *, *, #112, .F. ) ;
#114 = PERSON_AND_ORGANIZATION ( #214, #6 ) ;
#115 = VERTEX_POINT ( 'NONE', #263 ) ;
#116 = AXIS2_PLACEMENT_3D ( 'NONE', #217, #11, #195 ) ;
#117 = CARTESIAN_POINT ( 'NONE',  ( 0.5000000000000038858, 0.000000000000000000, 0.000000000000000000 ) ) ;
#118 = EDGE_CURVE ( 'NONE', #91, #37, #208, .T. ) ;
#119 = CARTESIAN_POINT ( 'NONE',  ( 0.000000000000000000, 0.000000000000000000, 0.000000000000000000 ) ) ;
#120 = DIRECTION ( 'NONE',  ( 1.000000000000000000, -0.000000000000000000, -0.000000000000000000 ) ) ;
#121 = CC_DESIGN_APPROVAL ( #129, ( #262 ) ) ;
#122 = CARTESIAN_POINT ( 'NONE',  ( 0.000000000000000000, 0.000000000000000000, 0.000000000000000000 ) ) ;
#123 = LINE ( 'NONE', #261, #172 ) ;
#124 = CYLINDRICAL_SURFACE ( 'NONE', #185, 11.00000000000000000 ) ;
#125 = CARTESIAN_POINT ( 'NONE',  ( 19.00000000000000000, 0.000000000000000000, 0.000000000000000000 ) ) ;
#126 = FACE_BOUND ( 'NONE', #21, .T. ) ;
#127 = EDGE_CURVE ( 'NONE', #37, #253, #35, .T. ) ;
#128 = AXIS2_PLACEMENT_3D ( 'NONE', #7, #120, #189 ) ;
#129 = APPROVAL ( #181, 'UNSPECIFIED' ) ;
#130 = EDGE_LOOP ( 'NONE', ( #99, #296, #93, #44 ) ) ;
#131 = AXIS2_PLACEMENT_3D ( 'NONE', #210, #282, #10 ) ;
#132 = EDGE_CURVE ( 'NONE', #91, #87, #292, .T. ) ;
#133 = PERSON_AND_ORGANIZATION_ROLE ( 'creator' ) ;
#134 = ORIENTED_EDGE ( 'NONE', *, *, #90, .T. ) ;
#135 = CALENDAR_DATE ( 2026, 7, 2 ) ;
#136 = ORIENTED_EDGE ( 'NONE', *, *, #244, .F. ) ;
#137 = ADVANCED_FACE ( 'NONE', ( #29 ), #52, .F. ) ;
#138 = CARTESIAN_POINT ( 'NONE',  ( 19.00000000000000000, 0.000000000000000000, 7.500000000000000000 ) ) ;
#139 = CC_DESIGN_APPROVAL ( #236, ( #8 ) ) ;
#140 = CC_DESIGN_PERSON_AND_ORGANIZATION_ASSIGNMENT ( #43, #41, ( #262 ) ) ;
#141 = DIRECTION ( 'NONE',  ( 1.000000000000000000, 0.000000000000000000, 0.000000000000000000 ) ) ;
#142 = FACE_OUTER_BOUND ( 'NONE', #259, .T. ) ;
#143 = DIRECTION ( 'NONE',  ( -1.000000000000000000, -0.000000000000000000, -0.000000000000000000 ) ) ;
#144 = CONICAL_SURFACE ( 'NONE', #286, 11.00000000000000000, 0.7853981633974533860 ) ;
#145 = EDGE_LOOP ( 'NONE', ( #18, #110, #207, #275 ) ) ;
#146 = DIRECTION ( 'NONE',  ( 0.000000000000000000, 0.000000000000000000, -1.000000000000000000 ) ) ;
#147 = ADVANCED_FACE ( 'NONE', ( #25 ), #144, .T. ) ;
#148 = CARTESIAN_POINT ( 'NONE',  ( 0.5000000000000038858, 1.347111479062088405E-15, -11.00000000000000000 ) ) ;
#149 = AXIS2_PLACEMENT_3D ( 'NONE', #239, #143, #166 ) ;
#150 = DIRECTION ( 'NONE',  ( 1.000000000000000000, 0.000000000000000000, 0.000000000000000000 ) ) ;
#151 = CC_DESIGN_DATE_AND_TIME_ASSIGNMENT ( #229, #22, ( #262 ) ) ;
#152 =( NAMED_UNIT ( * ) PLANE_ANGLE_UNIT ( ) SI_UNIT ( $, .RADIAN. ) );
#153 = CARTESIAN_POINT ( 'NONE',  ( 0.000000000000000000, 9.184850993605147944E-16, -7.500000000000000000 ) ) ;
#154 = PRODUCT_RELATED_PRODUCT_CATEGORY ( 'detail', '', ( #174 ) ) ;
#155 =( GEOMETRIC_REPRESENTATION_CONTEXT ( 3 ) GLOBAL_UNCERTAINTY_ASSIGNED_CONTEXT ( ( #285 ) ) GLOBAL_UNIT_ASSIGNED_CONTEXT ( ( #240, #152, #104 ) ) REPRESENTATION_CONTEXT ( 'NONE', 'WORKASPACE' ) );
#156 = SHAPE_DEFINITION_REPRESENTATION ( #221, #54 ) ;
#157 = VECTOR ( 'NONE', #235, 1000.000000000000000 ) ;
#158 = ORIENTED_EDGE ( 'NONE', *, *, #16, .F. ) ;
#159 = APPROVAL_STATUS ( 'not_yet_approved' ) ;
#160 = CC_DESIGN_PERSON_AND_ORGANIZATION_ASSIGNMENT ( #17, #203, ( #198 ) ) ;
#161 = ORIENTED_EDGE ( 'NONE', *, *, #70, .T. ) ;
#162 = APPLICATION_PROTOCOL_DEFINITION ( 'international standard', 'config_control_design', 1994, #47 ) ;
#163 = AXIS2_PLACEMENT_3D ( 'NONE', #224, #196, #146 ) ;
#164 = EDGE_LOOP ( 'NONE', ( #134, #69 ) ) ;
#165 = CARTESIAN_POINT ( 'NONE',  ( 0.5000000000000038858, 0.000000000000000000, 11.00000000000000000 ) ) ;
#166 = DIRECTION ( 'NONE',  ( 0.000000000000000000, 0.000000000000000000, 1.000000000000000000 ) ) ;
#167 = DIRECTION ( 'NONE',  ( 0.000000000000000000, 0.000000000000000000, -1.000000000000000000 ) ) ;
#168 = CIRCLE ( 'NONE', #288, 11.00000000000000000 ) ;
#169 = DIRECTION ( 'NONE',  ( 1.000000000000000000, 0.000000000000000000, 0.000000000000000000 ) ) ;
#170 = DIRECTION ( 'NONE',  ( 0.000000000000000000, 0.000000000000000000, -1.000000000000000000 ) ) ;
#171 = DESIGN_CONTEXT ( 'detailed design', #47, 'design' ) ;
#172 = VECTOR ( 'NONE', #280, 1000.000000000000000 ) ;
#173 = DIRECTION ( 'NONE',  ( -1.000000000000000000, -0.000000000000000000, -0.000000000000000000 ) ) ;
#174 = PRODUCT ( 'OEM-3_8-BSPP-3000-316L_REV_', 'OEM-3_8-BSPP-3000-316L_REV_', '', ( #34 ) ) ;
#175 = CARTESIAN_POINT ( 'NONE',  ( 19.00000000000000000, 0.000000000000000000, 0.000000000000000000 ) ) ;
#176 = DIRECTION ( 'NONE',  ( -1.000000000000000000, -0.000000000000000000, -0.000000000000000000 ) ) ;
#177 = LOCAL_TIME ( 9, 18, 29.00000000000000000, #270 ) ;
#178 = PERSON_AND_ORGANIZATION ( #214, #6 ) ;
#179 = PERSON_AND_ORGANIZATION ( #214, #6 ) ;
#180 = CC_DESIGN_PERSON_AND_ORGANIZATION_ASSIGNMENT ( #45, #133, ( #8 ) ) ;
#181 = APPROVAL_STATUS ( 'not_yet_approved' ) ;
#182 = ORIENTED_EDGE ( 'NONE', *, *, #254, .T. ) ;
#183 = COORDINATED_UNIVERSAL_TIME_OFFSET ( 10, 0, .AHEAD. ) ;
#184 = APPROVAL_STATUS ( 'not_yet_approved' ) ;
#185 = AXIS2_PLACEMENT_3D ( 'NONE', #243, #33, #222 ) ;
#186 = ORIENTED_EDGE ( 'NONE', *, *, #39, .T. ) ;
#187 = CIRCLE ( 'NONE', #38, 7.500000000000000000 ) ;
#188 = DIRECTION ( 'NONE',  ( 0.000000000000000000, 0.000000000000000000, -1.000000000000000000 ) ) ;
#189 = DIRECTION ( 'NONE',  ( 0.000000000000000000, 0.000000000000000000, -1.000000000000000000 ) ) ;
#190 = CIRCLE ( 'NONE', #15, 7.500000000000000000 ) ;
#191 = DIRECTION ( 'NONE',  ( 1.000000000000000000, 0.000000000000000000, 0.000000000000000000 ) ) ;
#192 = CARTESIAN_POINT ( 'NONE',  ( 0.5000000000000038858, 0.000000000000000000, -11.00000000000000000 ) ) ;
#193 = DIRECTION ( 'NONE',  ( 0.000000000000000000, 0.000000000000000000, 1.000000000000000000 ) ) ;
#194 = CIRCLE ( 'NONE', #128, 11.00000000000000000 ) ;
#195 = DIRECTION ( 'NONE',  ( 1.000000000000000000, 0.000000000000000000, 0.000000000000000000 ) ) ;
#196 = DIRECTION ( 'NONE',  ( -1.000000000000000000, -0.000000000000000000, -0.000000000000000000 ) ) ;
#197 = DIRECTION ( 'NONE',  ( 0.000000000000000000, 0.000000000000000000, -1.000000000000000000 ) ) ;
#198 = PRODUCT_DEFINITION_FORMATION_WITH_SPECIFIED_SOURCE ( 'ANY', '', #174, .NOT_KNOWN. ) ;
#199 = DIRECTION ( 'NONE',  ( -1.000000000000000000, -0.000000000000000000, -0.000000000000000000 ) ) ;
#200 = DATE_AND_TIME ( #64, #42 ) ;
#201 = ORIENTED_EDGE ( 'NONE', *, *, #118, .F. ) ;
#202 = DATE_AND_TIME ( #277, #242 ) ;
#203 = PERSON_AND_ORGANIZATION_ROLE ( 'creator' ) ;
#204 = ORIENTED_EDGE ( 'NONE', *, *, #279, .T. ) ;
#205 = AXIS2_PLACEMENT_3D ( 'NONE', #101, #245, #197 ) ;
#206 = ADVANCED_FACE ( 'NONE', ( #14 ), #56, .F. ) ;
#207 = ORIENTED_EDGE ( 'NONE', *, *, #80, .F. ) ;
#208 = LINE ( 'NONE', #138, #57 ) ;
#209 = AXIS2_PLACEMENT_3D ( 'NONE', #122, #141, #96 ) ;
#210 = CARTESIAN_POINT ( 'NONE',  ( 19.00000000000000000, 0.000000000000000000, 0.000000000000000000 ) ) ;
#211 = CC_DESIGN_DATE_AND_TIME_ASSIGNMENT ( #84, #225, ( #8 ) ) ;
#212 = CARTESIAN_POINT ( 'NONE',  ( 19.00000000000000000, 9.184850993605147944E-16, -7.500000000000000000 ) ) ;
#213 = APPROVAL_PERSON_ORGANIZATION ( #295, #274, #66 ) ;
#214 = PERSON ( 'UNSPECIFIED', 'UNSPECIFIED', 'UNSPECIFIED', ('UNSPECIFIED'), ('UNSPECIFIED'), ('UNSPECIFIED') ) ;
#215 = CYLINDRICAL_SURFACE ( 'NONE', #149, 11.00000000000000000 ) ;
#216 = CARTESIAN_POINT ( 'NONE',  ( 19.00000000000000000, 1.347111479062088405E-15, -11.00000000000000000 ) ) ;
#217 = CARTESIAN_POINT ( 'NONE',  ( 0.000000000000000000, 0.000000000000000000, 0.000000000000000000 ) ) ;
#218 = CIRCLE ( 'NONE', #67, 11.00000000000000000 ) ;
#219 = MANIFOLD_SOLID_BREP ( 'Chamfer2', #265 ) ;
#220 = LINE ( 'NONE', #105, #276 ) ;
#221 = PRODUCT_DEFINITION_SHAPE ( 'NONE', 'NONE',  #8 ) ;
#222 = DIRECTION ( 'NONE',  ( 0.000000000000000000, 0.000000000000000000, 1.000000000000000000 ) ) ;
#223 = CC_DESIGN_PERSON_AND_ORGANIZATION_ASSIGNMENT ( #114, #109, ( #174 ) ) ;
#224 = CARTESIAN_POINT ( 'NONE',  ( 0.000000000000000000, 0.000000000000000000, 0.000000000000000000 ) ) ;
#225 = DATE_TIME_ROLE ( 'creation_date' ) ;
#226 = ORIENTED_EDGE ( 'NONE', *, *, #247, .F. ) ;
#227 = AXIS2_PLACEMENT_3D ( 'NONE', #125, #150, #31 ) ;
#228 = COORDINATED_UNIVERSAL_TIME_OFFSET ( 10, 0, .AHEAD. ) ;
#229 = DATE_AND_TIME ( #248, #68 ) ;
#230 = ORIENTED_EDGE ( 'NONE', *, *, #132, .T. ) ;
#231 = VERTEX_POINT ( 'NONE', #264 ) ;
#232 = APPROVAL_PERSON_ORGANIZATION ( #179, #236, #294 ) ;
#233 = DIRECTION ( 'NONE',  ( -1.000000000000000000, -0.000000000000000000, -0.000000000000000000 ) ) ;
#234 = APPLICATION_CONTEXT ( 'configuration controlled 3d designs of mechanical parts and assemblies' ) ;
#235 = DIRECTION ( 'NONE',  ( 0.7071067811865439090, 0.000000000000000000, -0.7071067811865512365 ) ) ;
#236 = APPROVAL ( #184, 'UNSPECIFIED' ) ;
#237 = FACE_BOUND ( 'NONE', #278, .T. ) ;
#238 = CARTESIAN_POINT ( 'NONE',  ( 19.00000000000000000, 0.000000000000000000, 0.000000000000000000 ) ) ;
#239 = CARTESIAN_POINT ( 'NONE',  ( 19.00000000000000000, 0.000000000000000000, 0.000000000000000000 ) ) ;
#240 =( LENGTH_UNIT ( ) NAMED_UNIT ( * ) SI_UNIT ( .MILLI., .METRE. ) );
#241 = CARTESIAN_POINT ( 'NONE',  ( 0.5000000000000038858, 0.000000000000000000, 0.000000000000000000 ) ) ;
#242 = LOCAL_TIME ( 9, 18, 29.00000000000000000, #273 ) ;
#243 = CARTESIAN_POINT ( 'NONE',  ( 19.00000000000000000, 0.000000000000000000, 0.000000000000000000 ) ) ;
#244 = EDGE_CURVE ( 'NONE', #231, #2, #220, .T. ) ;
#245 = DIRECTION ( 'NONE',  ( -1.000000000000000000, -0.000000000000000000, -0.000000000000000000 ) ) ;
#246 = LOCAL_TIME ( 9, 18, 29.00000000000000000, #228 ) ;
#247 = EDGE_CURVE ( 'NONE', #253, #37, #190, .T. ) ;
#248 = CALENDAR_DATE ( 2026, 7, 2 ) ;
#249 = ORIENTED_EDGE ( 'NONE', *, *, #127, .T. ) ;
#250 = VERTEX_POINT ( 'NONE', #148 ) ;
#251 = EDGE_LOOP ( 'NONE', ( #63, #71, #260, #136 ) ) ;
#252 = DATE_AND_TIME ( #85, #177 ) ;
#253 = VERTEX_POINT ( 'NONE', #153 ) ;
#254 = EDGE_CURVE ( 'NONE', #87, #253, #58, .T. ) ;
#255 = ORIENTED_EDGE ( 'NONE', *, *, #254, .F. ) ;
#256 = CARTESIAN_POINT ( 'NONE',  ( 19.00000000000000000, 1.347111479062088405E-15, -11.00000000000000000 ) ) ;
#257 = ADVANCED_FACE ( 'NONE', ( #59, #126 ), #55, .T. ) ;
#258 = AXIS2_PLACEMENT_3D ( 'NONE', #82, #12, #102 ) ;
#259 = EDGE_LOOP ( 'NONE', ( #9, #204 ) ) ;
#260 = ORIENTED_EDGE ( 'NONE', *, *, #80, .T. ) ;
#261 = CARTESIAN_POINT ( 'NONE',  ( 0.5000000000000038858, 1.347111479062088405E-15, 11.00000000000000000 ) ) ;
#262 = SECURITY_CLASSIFICATION ( '', '', #298 ) ;
#263 = CARTESIAN_POINT ( 'NONE',  ( 0.000000000000000000, 1.316495309083404026E-15, 10.49999999999999112 ) ) ;
#264 = CARTESIAN_POINT ( 'NONE',  ( 19.00000000000000000, 0.000000000000000000, 11.00000000000000000 ) ) ;
#265 = CLOSED_SHELL ( 'NONE', ( #147, #137, #267, #257, #60, #95, #206, #289 ) ) ;
#266 = DIRECTION ( 'NONE',  ( 0.000000000000000000, 0.000000000000000000, 1.000000000000000000 ) ) ;
#267 = ADVANCED_FACE ( 'NONE', ( #83 ), #124, .T. ) ;
#268 = DIRECTION ( 'NONE',  ( 0.000000000000000000, 0.000000000000000000, -1.000000000000000000 ) ) ;
#269 = APPROVAL_DATE_TIME ( #202, #129 ) ;
#270 = COORDINATED_UNIVERSAL_TIME_OFFSET ( 10, 0, .AHEAD. ) ;
#271 = EDGE_LOOP ( 'NONE', ( #230, #182, #108, #201 ) ) ;
#272 = ORIENTED_EDGE ( 'NONE', *, *, #39, .F. ) ;
#273 = COORDINATED_UNIVERSAL_TIME_OFFSET ( 10, 0, .AHEAD. ) ;
#274 = APPROVAL ( #159, 'UNSPECIFIED' ) ;
#275 = ORIENTED_EDGE ( 'NONE', *, *, #70, .F. ) ;
#276 = VECTOR ( 'NONE', #199, 1000.000000000000000 ) ;
#277 = CALENDAR_DATE ( 2026, 7, 2 ) ;
#278 = EDGE_LOOP ( 'NONE', ( #249, #5 ) ) ;
#279 = EDGE_CURVE ( 'NONE', #115, #4, #97, .T. ) ;
#280 = DIRECTION ( 'NONE',  ( 0.7071067811865439090, 8.659560562354978464E-17, 0.7071067811865512365 ) ) ;
#281 = AXIS2_PLACEMENT_3D ( 'NONE', #175, #176, #266 ) ;
#282 = DIRECTION ( 'NONE',  ( 1.000000000000000000, 0.000000000000000000, 0.000000000000000000 ) ) ;
#283 = DIRECTION ( 'NONE',  ( 1.000000000000000000, -0.000000000000000000, -0.000000000000000000 ) ) ;
#284 = CARTESIAN_POINT ( 'NONE',  ( 19.00000000000000000, 0.000000000000000000, 0.000000000000000000 ) ) ;
#285 = UNCERTAINTY_MEASURE_WITH_UNIT (LENGTH_MEASURE( 1.000000000000000082E-05 ), #240, 'distance_accuracy_value', 'NONE');
#286 = AXIS2_PLACEMENT_3D ( 'NONE', #241, #79, #290 ) ;
#287 = CARTESIAN_POINT ( 'NONE',  ( 19.00000000000000000, 0.000000000000000000, 0.000000000000000000 ) ) ;
#288 = AXIS2_PLACEMENT_3D ( 'NONE', #73, #51, #167 ) ;
#289 = ADVANCED_FACE ( 'NONE', ( #13 ), #81, .T. ) ;
#290 = DIRECTION ( 'NONE',  ( 0.000000000000000000, 0.000000000000000000, -1.000000000000000000 ) ) ;
#291 = CARTESIAN_POINT ( 'NONE',  ( 0.000000000000000000, 0.000000000000000000, 0.000000000000000000 ) ) ;
#292 = CIRCLE ( 'NONE', #131, 7.500000000000000000 ) ;
#293 = EDGE_CURVE ( 'NONE', #4, #115, #49, .T. ) ;
#294 = APPROVAL_ROLE ( '' ) ;
#295 = PERSON_AND_ORGANIZATION ( #214, #6 ) ;
#296 = ORIENTED_EDGE ( 'NONE', *, *, #90, .F. ) ;
#297 = AXIS2_PLACEMENT_3D ( 'NONE', #119, #191, #170 ) ;
#298 = SECURITY_CLASSIFICATION_LEVEL ( 'unclassified' ) ;
#299 = EDGE_LOOP ( 'NONE', ( #113, #89, #161, #158 ) ) ;
ENDSEC;
END-ISO-10303-21;
