ISO-10303-21;
HEADER;
FILE_DESCRIPTION (( 'STEP AP203' ),
    '1' );
FILE_NAME ('OEM-40-JIS5-3_REV_.step',
    '2025-11-20T01:00:26',
    ( '' ),
    ( '' ),
    'SwSTEP 2.0',
    'SolidWorks 2025',
    '' );
FILE_SCHEMA (( 'CONFIG_CONTROL_DESIGN' ));
ENDSEC;

DATA;
#1 = ORIENTED_EDGE ( 'NONE', *, *, #177, .T. ) ;
#2 = AXIS2_PLACEMENT_3D ( 'NONE', #11, #186, #104 ) ;
#3 = ORIENTED_EDGE ( 'NONE', *, *, #43, .T. ) ;
#4 = ORIENTED_EDGE ( 'NONE', *, *, #89, .T. ) ;
#5 = DIRECTION ( 'NONE',  ( 1.000000000000000000, 0.000000000000000000, 0.000000000000000000 ) ) ;
#6 = AXIS2_PLACEMENT_3D ( 'NONE', #37, #228, #116 ) ;
#7 = LOCAL_TIME ( 12, 0, 26.00000000000000000, #106 ) ;
#8 = EDGE_CURVE ( 'NONE', #235, #97, #121, .T. ) ;
#9 = DIRECTION ( 'NONE',  ( 1.000000000000000000, 0.000000000000000000, 0.000000000000000000 ) ) ;
#10 = CC_DESIGN_PERSON_AND_ORGANIZATION_ASSIGNMENT ( #151, #229, ( #191 ) ) ;
#11 = CARTESIAN_POINT ( 'NONE',  ( -3.000000000000000000, 0.000000000000000000, 0.000000000000000000 ) ) ;
#12 = AXIS2_PLACEMENT_3D ( 'NONE', #26, #181, #108 ) ;
#13 = PRODUCT_DEFINITION_SHAPE ( 'NONE', 'NONE',  #84 ) ;
#14 = CARTESIAN_POINT ( 'NONE',  ( -3.000000000000000000, 0.000000000000000000, 0.000000000000000000 ) ) ;
#15 = APPROVAL_DATE_TIME ( #115, #167 ) ;
#16 = VECTOR ( 'NONE', #87, 1000.000000000000000 ) ;
#17 = APPROVAL_STATUS ( 'not_yet_approved' ) ;
#18 = CIRCLE ( 'NONE', #27, 40.00000000000000000 ) ;
#19 = EDGE_LOOP ( 'NONE', ( #41, #155 ) ) ;
#20 = EDGE_LOOP ( 'NONE', ( #60, #3 ) ) ;
#21 = DIRECTION ( 'NONE',  ( 1.000000000000000000, 0.000000000000000000, 0.000000000000000000 ) ) ;
#22 = CLOSED_SHELL ( 'NONE', ( #135, #127, #119, #183, #129, #25 ) ) ;
#23 = ORIENTED_EDGE ( 'NONE', *, *, #172, .F. ) ;
#24 = VERTEX_POINT ( 'NONE', #214 ) ;
#25 = ADVANCED_FACE ( 'NONE', ( #40 ), #141, .F. ) ;
#26 = CARTESIAN_POINT ( 'NONE',  ( -3.000000000000000000, 0.000000000000000000, 0.000000000000000000 ) ) ;
#27 = AXIS2_PLACEMENT_3D ( 'NONE', #215, #159, #38 ) ;
#28 = CARTESIAN_POINT ( 'NONE',  ( -3.000000000000000000, 0.000000000000000000, 0.000000000000000000 ) ) ;
#29 = CC_DESIGN_SECURITY_CLASSIFICATION ( #47, ( #191 ) ) ;
#30 = CARTESIAN_POINT ( 'NONE',  ( -3.000000000000000000, 0.000000000000000000, 0.000000000000000000 ) ) ;
#31 = FACE_OUTER_BOUND ( 'NONE', #19, .T. ) ;
#32 = CARTESIAN_POINT ( 'NONE',  ( 0.000000000000000000, 0.000000000000000000, 0.000000000000000000 ) ) ;
#33 = VECTOR ( 'NONE', #236, 1000.000000000000000 ) ;
#34 = CALENDAR_DATE ( 2025, 20, 11 ) ;
#35 = CALENDAR_DATE ( 2025, 20, 11 ) ;
#36 = APPROVAL_STATUS ( 'not_yet_approved' ) ;
#37 = CARTESIAN_POINT ( 'NONE',  ( 0.000000000000000000, 0.000000000000000000, 0.000000000000000000 ) ) ;
#38 = DIRECTION ( 'NONE',  ( 0.000000000000000000, 0.000000000000000000, -1.000000000000000000 ) ) ;
#39 = CC_DESIGN_PERSON_AND_ORGANIZATION_ASSIGNMENT ( #95, #53, ( #84 ) ) ;
#40 = FACE_OUTER_BOUND ( 'NONE', #176, .T. ) ;
#41 = ORIENTED_EDGE ( 'NONE', *, *, #8, .T. ) ;
#42 = CARTESIAN_POINT ( 'NONE',  ( -3.000000000000000000, 0.000000000000000000, 0.000000000000000000 ) ) ;
#43 = EDGE_CURVE ( 'NONE', #24, #233, #69, .T. ) ;
#44 = DIRECTION ( 'NONE',  ( 0.000000000000000000, 0.000000000000000000, -1.000000000000000000 ) ) ;
#45 = CARTESIAN_POINT ( 'NONE',  ( 0.000000000000000000, 0.000000000000000000, -40.00000000000000000 ) ) ;
#46 = CARTESIAN_POINT ( 'NONE',  ( -3.000000000000000000, 0.000000000000000000, -40.00000000000000000 ) ) ;
#47 = SECURITY_CLASSIFICATION ( '', '', #247 ) ;
#48 =( LENGTH_UNIT ( ) NAMED_UNIT ( * ) SI_UNIT ( .MILLI., .METRE. ) );
#49 = APPROVAL_ROLE ( '' ) ;
#50 = FACE_BOUND ( 'NONE', #20, .T. ) ;
#51 = SHAPE_DEFINITION_REPRESENTATION ( #13, #161 ) ;
#52 = PERSON_AND_ORGANIZATION_ROLE ( 'classification_officer' ) ;
#53 = PERSON_AND_ORGANIZATION_ROLE ( 'creator' ) ;
#54 = CALENDAR_DATE ( 2025, 20, 11 ) ;
#55 = VERTEX_POINT ( 'NONE', #234 ) ;
#56 = PERSON ( 'UNSPECIFIED', 'UNSPECIFIED', 'UNSPECIFIED', ('UNSPECIFIED'), ('UNSPECIFIED'), ('UNSPECIFIED') ) ;
#57 = LINE ( 'NONE', #144, #33 ) ;
#58 = EDGE_CURVE ( 'NONE', #97, #235, #18, .T. ) ;
#59 = EDGE_LOOP ( 'NONE', ( #157, #73, #101, #120 ) ) ;
#60 = ORIENTED_EDGE ( 'NONE', *, *, #114, .T. ) ;
#61 = DIRECTION ( 'NONE',  ( 1.000000000000000000, 0.000000000000000000, 0.000000000000000000 ) ) ;
#62 = AXIS2_PLACEMENT_3D ( 'NONE', #30, #102, #203 ) ;
#63 = CARTESIAN_POINT ( 'NONE',  ( -3.000000000000000000, 2.694222958124176809E-15, 22.00000000000000000 ) ) ;
#64 = LINE ( 'NONE', #46, #16 ) ;
#65 = DIRECTION ( 'NONE',  ( 0.000000000000000000, 0.000000000000000000, -1.000000000000000000 ) ) ;
#66 = CARTESIAN_POINT ( 'NONE',  ( 0.000000000000000000, 4.898587196589413026E-15, 40.00000000000000000 ) ) ;
#67 = PERSON_AND_ORGANIZATION ( #56, #130 ) ;
#68 = APPROVAL_DATE_TIME ( #153, #239 ) ;
#69 = CIRCLE ( 'NONE', #142, 22.00000000000000000 ) ;
#70 = COORDINATED_UNIVERSAL_TIME_OFFSET ( 10, 0, .AHEAD. ) ;
#71 = MANIFOLD_SOLID_BREP ( 'Boss-Extrude1', #22 ) ;
#72 = CARTESIAN_POINT ( 'NONE',  ( -3.000000000000000000, 0.000000000000000000, -22.00000000000000000 ) ) ;
#73 = ORIENTED_EDGE ( 'NONE', *, *, #197, .T. ) ;
#74 = CC_DESIGN_APPROVAL ( #239, ( #191 ) ) ;
#75 = DIRECTION ( 'NONE',  ( 0.000000000000000000, 0.000000000000000000, -1.000000000000000000 ) ) ;
#76 = APPLICATION_CONTEXT ( 'configuration controlled 3d designs of mechanical parts and assemblies' ) ;
#77 = EDGE_LOOP ( 'NONE', ( #156, #216 ) ) ;
#78 = DIRECTION ( 'NONE',  ( 0.000000000000000000, 0.000000000000000000, -1.000000000000000000 ) ) ;
#79 = EDGE_CURVE ( 'NONE', #233, #98, #249, .T. ) ;
#80 = AXIS2_PLACEMENT_3D ( 'NONE', #28, #182, #44 ) ;
#81 = AXIS2_PLACEMENT_3D ( 'NONE', #14, #179, #65 ) ;
#82 = CYLINDRICAL_SURFACE ( 'NONE', #2, 22.00000000000000000 ) ;
#83 = PLANE ( 'NONE',  #245 ) ;
#84 = PRODUCT_DEFINITION ( 'UNKNOWN', '', #191, #244 ) ;
#85 = CARTESIAN_POINT ( 'NONE',  ( 0.000000000000000000, 0.000000000000000000, 0.000000000000000000 ) ) ;
#86 = VECTOR ( 'NONE', #232, 1000.000000000000000 ) ;
#87 = DIRECTION ( 'NONE',  ( 1.000000000000000000, 0.000000000000000000, 0.000000000000000000 ) ) ;
#88 = DIRECTION ( 'NONE',  ( 1.000000000000000000, 0.000000000000000000, 0.000000000000000000 ) ) ;
#89 = EDGE_CURVE ( 'NONE', #55, #97, #57, .T. ) ;
#90 = APPROVAL_ROLE ( '' ) ;
#91 = DATE_AND_TIME ( #54, #103 ) ;
#92 = AXIS2_PLACEMENT_3D ( 'NONE', #85, #143, #184 ) ;
#93 = APPROVAL_PERSON_ORGANIZATION ( #187, #239, #226 ) ;
#94 = APPLICATION_PROTOCOL_DEFINITION ( 'international standard', 'config_control_design', 1994, #96 ) ;
#95 = PERSON_AND_ORGANIZATION ( #56, #130 ) ;
#96 = APPLICATION_CONTEXT ( 'configuration controlled 3d designs of mechanical parts and assemblies' ) ;
#97 = VERTEX_POINT ( 'NONE', #66 ) ;
#98 = VERTEX_POINT ( 'NONE', #202 ) ;
#99 = CARTESIAN_POINT ( 'NONE',  ( -3.000000000000000000, 0.000000000000000000, 0.000000000000000000 ) ) ;
#100 = ORIENTED_EDGE ( 'NONE', *, *, #89, .F. ) ;
#101 = ORIENTED_EDGE ( 'NONE', *, *, #154, .T. ) ;
#102 = DIRECTION ( 'NONE',  ( 1.000000000000000000, 0.000000000000000000, 0.000000000000000000 ) ) ;
#103 = LOCAL_TIME ( 12, 0, 26.00000000000000000, #133 ) ;
#104 = DIRECTION ( 'NONE',  ( 0.000000000000000000, 0.000000000000000000, -1.000000000000000000 ) ) ;
#105 = CC_DESIGN_PERSON_AND_ORGANIZATION_ASSIGNMENT ( #134, #52, ( #47 ) ) ;
#106 = COORDINATED_UNIVERSAL_TIME_OFFSET ( 10, 0, .AHEAD. ) ;
#107 = UNCERTAINTY_MEASURE_WITH_UNIT (LENGTH_MEASURE( 1.000000000000000082E-05 ), #48, 'distance_accuracy_value', 'NONE');
#108 = DIRECTION ( 'NONE',  ( 0.000000000000000000, 0.000000000000000000, -1.000000000000000000 ) ) ;
#109 = CYLINDRICAL_SURFACE ( 'NONE', #125, 40.00000000000000000 ) ;
#110 = PRODUCT_RELATED_PRODUCT_CATEGORY ( 'detail', '', ( #223 ) ) ;
#111 = FACE_OUTER_BOUND ( 'NONE', #140, .T. ) ;
#112 = DATE_AND_TIME ( #34, #7 ) ;
#113 = APPLICATION_PROTOCOL_DEFINITION ( 'international standard', 'config_control_design', 1994, #76 ) ;
#114 = EDGE_CURVE ( 'NONE', #233, #24, #188, .T. ) ;
#115 = DATE_AND_TIME ( #35, #147 ) ;
#116 = DIRECTION ( 'NONE',  ( 1.000000000000000000, 0.000000000000000000, 0.000000000000000000 ) ) ;
#117 = COORDINATED_UNIVERSAL_TIME_OFFSET ( 10, 0, .AHEAD. ) ;
#118 = CC_DESIGN_PERSON_AND_ORGANIZATION_ASSIGNMENT ( #210, #246, ( #191 ) ) ;
#119 = ADVANCED_FACE ( 'NONE', ( #164 ), #109, .T. ) ;
#120 = ORIENTED_EDGE ( 'NONE', *, *, #79, .F. ) ;
#121 = CIRCLE ( 'NONE', #180, 40.00000000000000000 ) ;
#122 = APPROVAL_PERSON_ORGANIZATION ( #67, #207, #49 ) ;
#123 = ORIENTED_EDGE ( 'NONE', *, *, #79, .T. ) ;
#124 = ORIENTED_EDGE ( 'NONE', *, *, #197, .F. ) ;
#125 = AXIS2_PLACEMENT_3D ( 'NONE', #128, #88, #165 ) ;
#126 = CARTESIAN_POINT ( 'NONE',  ( 0.000000000000000000, 0.000000000000000000, 0.000000000000000000 ) ) ;
#127 = ADVANCED_FACE ( 'NONE', ( #111 ), #225, .T. ) ;
#128 = CARTESIAN_POINT ( 'NONE',  ( -3.000000000000000000, 0.000000000000000000, 0.000000000000000000 ) ) ;
#129 = ADVANCED_FACE ( 'NONE', ( #205, #31 ), #83, .T. ) ;
#130 = ORGANIZATION ( 'UNSPECIFIED', 'UNSPECIFIED', '' ) ;
#131 = DATE_TIME_ROLE ( 'creation_date' ) ;
#132 = PERSON_AND_ORGANIZATION_ROLE ( 'design_owner' ) ;
#133 = COORDINATED_UNIVERSAL_TIME_OFFSET ( 10, 0, .AHEAD. ) ;
#134 = PERSON_AND_ORGANIZATION ( #56, #130 ) ;
#135 = ADVANCED_FACE ( 'NONE', ( #240 ), #82, .F. ) ;
#136 = CARTESIAN_POINT ( 'NONE',  ( 0.000000000000000000, 0.000000000000000000, 0.000000000000000000 ) ) ;
#137 = ORIENTED_EDGE ( 'NONE', *, *, #58, .F. ) ;
#138 = VECTOR ( 'NONE', #218, 1000.000000000000000 ) ;
#139 = DIRECTION ( 'NONE',  ( 0.000000000000000000, 0.000000000000000000, -1.000000000000000000 ) ) ;
#140 = EDGE_LOOP ( 'NONE', ( #1, #4, #175, #23 ) ) ;
#141 = CYLINDRICAL_SURFACE ( 'NONE', #196, 22.00000000000000000 ) ;
#142 = AXIS2_PLACEMENT_3D ( 'NONE', #42, #5, #78 ) ;
#143 = DIRECTION ( 'NONE',  ( 1.000000000000000000, 0.000000000000000000, 0.000000000000000000 ) ) ;
#144 = CARTESIAN_POINT ( 'NONE',  ( -3.000000000000000000, 4.898587196589413026E-15, 40.00000000000000000 ) ) ;
#145 = DIRECTION ( 'NONE',  ( 0.000000000000000000, 0.000000000000000000, -1.000000000000000000 ) ) ;
#146 = CIRCLE ( 'NONE', #12, 40.00000000000000000 ) ;
#147 = LOCAL_TIME ( 12, 0, 26.00000000000000000, #189 ) ;
#148 = CARTESIAN_POINT ( 'NONE',  ( 0.000000000000000000, 2.694222958124176809E-15, 22.00000000000000000 ) ) ;
#149 = DIRECTION ( 'NONE',  ( 1.000000000000000000, 0.000000000000000000, 0.000000000000000000 ) ) ;
#150 =( NAMED_UNIT ( * ) SI_UNIT ( $, .STERADIAN. ) SOLID_ANGLE_UNIT ( ) );
#151 = PERSON_AND_ORGANIZATION ( #56, #130 ) ;
#152 = DATE_AND_TIME ( #243, #222 ) ;
#153 = DATE_AND_TIME ( #171, #227 ) ;
#154 = EDGE_CURVE ( 'NONE', #195, #98, #168, .T. ) ;
#155 = ORIENTED_EDGE ( 'NONE', *, *, #58, .T. ) ;
#156 = ORIENTED_EDGE ( 'NONE', *, *, #248, .F. ) ;
#157 = ORIENTED_EDGE ( 'NONE', *, *, #43, .F. ) ;
#158 = ORIENTED_EDGE ( 'NONE', *, *, #248, .T. ) ;
#159 = DIRECTION ( 'NONE',  ( 1.000000000000000000, 0.000000000000000000, 0.000000000000000000 ) ) ;
#160 = APPROVAL_PERSON_ORGANIZATION ( #209, #167, #90 ) ;
#161 = ADVANCED_BREP_SHAPE_REPRESENTATION ( 'OEM-40-JIS5-3_REV_', ( #71, #6 ), #237 ) ;
#162 = LINE ( 'NONE', #63, #138 ) ;
#163 = DIRECTION ( 'NONE',  ( 0.000000000000000000, 0.000000000000000000, -1.000000000000000000 ) ) ;
#164 = FACE_OUTER_BOUND ( 'NONE', #213, .T. ) ;
#165 = DIRECTION ( 'NONE',  ( 0.000000000000000000, 0.000000000000000000, -1.000000000000000000 ) ) ;
#166 = MECHANICAL_CONTEXT ( 'NONE', #96, 'mechanical' ) ;
#167 = APPROVAL ( #17, 'UNSPECIFIED' ) ;
#168 = CIRCLE ( 'NONE', #92, 22.00000000000000000 ) ;
#169 = APPROVAL_STATUS ( 'not_yet_approved' ) ;
#170 = PERSON_AND_ORGANIZATION ( #56, #130 ) ;
#171 = CALENDAR_DATE ( 2025, 20, 11 ) ;
#172 = EDGE_CURVE ( 'NONE', #174, #235, #64, .T. ) ;
#173 = ORIENTED_EDGE ( 'NONE', *, *, #177, .F. ) ;
#174 = VERTEX_POINT ( 'NONE', #242 ) ;
#175 = ORIENTED_EDGE ( 'NONE', *, *, #8, .F. ) ;
#176 = EDGE_LOOP ( 'NONE', ( #124, #198, #123, #158 ) ) ;
#177 = EDGE_CURVE ( 'NONE', #174, #55, #146, .T. ) ;
#178 = EDGE_LOOP ( 'NONE', ( #173, #194 ) ) ;
#179 = DIRECTION ( 'NONE',  ( 1.000000000000000000, 0.000000000000000000, 0.000000000000000000 ) ) ;
#180 = AXIS2_PLACEMENT_3D ( 'NONE', #136, #61, #139 ) ;
#181 = DIRECTION ( 'NONE',  ( 1.000000000000000000, 0.000000000000000000, 0.000000000000000000 ) ) ;
#182 = DIRECTION ( 'NONE',  ( 1.000000000000000000, 0.000000000000000000, 0.000000000000000000 ) ) ;
#183 = ADVANCED_FACE ( 'NONE', ( #50, #241 ), #224, .F. ) ;
#184 = DIRECTION ( 'NONE',  ( 0.000000000000000000, 0.000000000000000000, -1.000000000000000000 ) ) ;
#185 = CC_DESIGN_APPROVAL ( #207, ( #47 ) ) ;
#186 = DIRECTION ( 'NONE',  ( 1.000000000000000000, 0.000000000000000000, 0.000000000000000000 ) ) ;
#187 = PERSON_AND_ORGANIZATION ( #56, #130 ) ;
#188 = CIRCLE ( 'NONE', #80, 22.00000000000000000 ) ;
#189 = COORDINATED_UNIVERSAL_TIME_OFFSET ( 10, 0, .AHEAD. ) ;
#190 = CC_DESIGN_PERSON_AND_ORGANIZATION_ASSIGNMENT ( #170, #132, ( #223 ) ) ;
#191 = PRODUCT_DEFINITION_FORMATION_WITH_SPECIFIED_SOURCE ( 'ANY', '', #223, .NOT_KNOWN. ) ;
#192 = ORIENTED_EDGE ( 'NONE', *, *, #199, .T. ) ;
#193 = ORIENTED_EDGE ( 'NONE', *, *, #172, .T. ) ;
#194 = ORIENTED_EDGE ( 'NONE', *, *, #199, .F. ) ;
#195 = VERTEX_POINT ( 'NONE', #148 ) ;
#196 = AXIS2_PLACEMENT_3D ( 'NONE', #99, #21, #75 ) ;
#197 = EDGE_CURVE ( 'NONE', #24, #195, #162, .T. ) ;
#198 = ORIENTED_EDGE ( 'NONE', *, *, #114, .F. ) ;
#199 = EDGE_CURVE ( 'NONE', #55, #174, #230, .T. ) ;
#200 = DIRECTION ( 'NONE',  ( 0.000000000000000000, 0.000000000000000000, -1.000000000000000000 ) ) ;
#201 = APPROVAL_DATE_TIME ( #112, #207 ) ;
#202 = CARTESIAN_POINT ( 'NONE',  ( 0.000000000000000000, 0.000000000000000000, -22.00000000000000000 ) ) ;
#203 = DIRECTION ( 'NONE',  ( 0.000000000000000000, 0.000000000000000000, -1.000000000000000000 ) ) ;
#204 = CC_DESIGN_DATE_AND_TIME_ASSIGNMENT ( #91, #131, ( #84 ) ) ;
#205 = FACE_BOUND ( 'NONE', #77, .T. ) ;
#206 = AXIS2_PLACEMENT_3D ( 'NONE', #238, #9, #200 ) ;
#207 = APPROVAL ( #36, 'UNSPECIFIED' ) ;
#208 =( NAMED_UNIT ( * ) PLANE_ANGLE_UNIT ( ) SI_UNIT ( $, .RADIAN. ) );
#209 = PERSON_AND_ORGANIZATION ( #56, #130 ) ;
#210 = PERSON_AND_ORGANIZATION ( #56, #130 ) ;
#211 = AXIS2_PLACEMENT_3D ( 'NONE', #126, #220, #145 ) ;
#212 = DATE_TIME_ROLE ( 'classification_date' ) ;
#213 = EDGE_LOOP ( 'NONE', ( #100, #192, #193, #137 ) ) ;
#214 = CARTESIAN_POINT ( 'NONE',  ( -3.000000000000000000, 2.694222958124176809E-15, 22.00000000000000000 ) ) ;
#215 = CARTESIAN_POINT ( 'NONE',  ( 0.000000000000000000, 0.000000000000000000, 0.000000000000000000 ) ) ;
#216 = ORIENTED_EDGE ( 'NONE', *, *, #154, .F. ) ;
#217 = CC_DESIGN_APPROVAL ( #167, ( #84 ) ) ;
#218 = DIRECTION ( 'NONE',  ( 1.000000000000000000, 0.000000000000000000, 0.000000000000000000 ) ) ;
#219 = CARTESIAN_POINT ( 'NONE',  ( -3.000000000000000000, 0.000000000000000000, -22.00000000000000000 ) ) ;
#220 = DIRECTION ( 'NONE',  ( 1.000000000000000000, 0.000000000000000000, 0.000000000000000000 ) ) ;
#221 = CIRCLE ( 'NONE', #211, 22.00000000000000000 ) ;
#222 = LOCAL_TIME ( 12, 0, 26.00000000000000000, #70 ) ;
#223 = PRODUCT ( 'OEM-40-JIS5-3_REV_', 'OEM-40-JIS5-3_REV_', '', ( #166 ) ) ;
#224 = PLANE ( 'NONE',  #81 ) ;
#225 = CYLINDRICAL_SURFACE ( 'NONE', #62, 40.00000000000000000 ) ;
#226 = APPROVAL_ROLE ( '' ) ;
#227 = LOCAL_TIME ( 12, 0, 26.00000000000000000, #117 ) ;
#228 = DIRECTION ( 'NONE',  ( 0.000000000000000000, 0.000000000000000000, 1.000000000000000000 ) ) ;
#229 = PERSON_AND_ORGANIZATION_ROLE ( 'design_supplier' ) ;
#230 = CIRCLE ( 'NONE', #206, 40.00000000000000000 ) ;
#231 = CC_DESIGN_DATE_AND_TIME_ASSIGNMENT ( #152, #212, ( #47 ) ) ;
#232 = DIRECTION ( 'NONE',  ( 1.000000000000000000, 0.000000000000000000, 0.000000000000000000 ) ) ;
#233 = VERTEX_POINT ( 'NONE', #219 ) ;
#234 = CARTESIAN_POINT ( 'NONE',  ( -3.000000000000000000, 4.898587196589413026E-15, 40.00000000000000000 ) ) ;
#235 = VERTEX_POINT ( 'NONE', #45 ) ;
#236 = DIRECTION ( 'NONE',  ( 1.000000000000000000, 0.000000000000000000, 0.000000000000000000 ) ) ;
#237 =( GEOMETRIC_REPRESENTATION_CONTEXT ( 3 ) GLOBAL_UNCERTAINTY_ASSIGNED_CONTEXT ( ( #107 ) ) GLOBAL_UNIT_ASSIGNED_CONTEXT ( ( #48, #208, #150 ) ) REPRESENTATION_CONTEXT ( 'NONE', 'WORKASPACE' ) );
#238 = CARTESIAN_POINT ( 'NONE',  ( -3.000000000000000000, 0.000000000000000000, 0.000000000000000000 ) ) ;
#239 = APPROVAL ( #169, 'UNSPECIFIED' ) ;
#240 = FACE_OUTER_BOUND ( 'NONE', #59, .T. ) ;
#241 = FACE_OUTER_BOUND ( 'NONE', #178, .T. ) ;
#242 = CARTESIAN_POINT ( 'NONE',  ( -3.000000000000000000, 0.000000000000000000, -40.00000000000000000 ) ) ;
#243 = CALENDAR_DATE ( 2025, 20, 11 ) ;
#244 = DESIGN_CONTEXT ( 'detailed design', #76, 'design' ) ;
#245 = AXIS2_PLACEMENT_3D ( 'NONE', #32, #149, #163 ) ;
#246 = PERSON_AND_ORGANIZATION_ROLE ( 'creator' ) ;
#247 = SECURITY_CLASSIFICATION_LEVEL ( 'unclassified' ) ;
#248 = EDGE_CURVE ( 'NONE', #98, #195, #221, .T. ) ;
#249 = LINE ( 'NONE', #72, #86 ) ;
ENDSEC;
END-ISO-10303-21;
