ISO-10303-21;
HEADER;
FILE_DESCRIPTION (( 'STEP AP203' ),
    '1' );
FILE_NAME ('OEM-40-LR-40-316L_REV_.step',
    '2025-11-20T01:09:21',
    ( '' ),
    ( '' ),
    'SwSTEP 2.0',
    'SolidWorks 2025',
    '' );
FILE_SCHEMA (( 'CONFIG_CONTROL_DESIGN' ));
ENDSEC;

DATA;
#1 = CALENDAR_DATE ( 2025, 20, 11 ) ;
#2 = COORDINATED_UNIVERSAL_TIME_OFFSET ( 10, 0, .AHEAD. ) ;
#3 = ADVANCED_FACE ( 'NONE', ( #128 ), #42, .F. ) ;
#4 = AXIS2_PLACEMENT_3D ( 'NONE', #228, #14, #133 ) ;
#5 = CALENDAR_DATE ( 2025, 20, 11 ) ;
#6 = CIRCLE ( 'NONE', #148, 77.56999999999999318 ) ;
#7 = COORDINATED_UNIVERSAL_TIME_OFFSET ( 10, 0, .AHEAD. ) ;
#8 = ORIENTED_EDGE ( 'NONE', *, *, #224, .F. ) ;
#9 = EDGE_CURVE ( 'NONE', #166, #92, #136, .T. ) ;
#10 = DIRECTION ( 'NONE',  ( 1.000000000000000000, 0.000000000000000000, 0.000000000000000000 ) ) ;
#11 = EDGE_LOOP ( 'NONE', ( #225, #169, #88, #130 ) ) ;
#12 = AXIS2_PLACEMENT_3D ( 'NONE', #243, #72, #10 ) ;
#13 = VERTEX_POINT ( 'NONE', #108 ) ;
#14 = DIRECTION ( 'NONE',  ( -6.123233995736764803E-17, -1.000000000000000000, -0.000000000000000000 ) ) ;
#15 = EDGE_CURVE ( 'NONE', #46, #147, #199, .T. ) ;
#16 = CARTESIAN_POINT ( 'NONE',  ( 0.000000000000000000, 57.10000000000000142, 0.000000000000000000 ) ) ;
#17 = DIRECTION ( 'NONE',  ( 0.000000000000000000, 0.000000000000000000, 1.000000000000000000 ) ) ;
#18 = DIRECTION ( 'NONE',  ( 0.000000000000000000, 0.000000000000000000, -1.000000000000000000 ) ) ;
#19 = APPROVAL ( #103, 'UNSPECIFIED' ) ;
#20 = TOROIDAL_SURFACE ( 'NONE', #45, 57.10000000000000142, 24.14999999999999858 ) ;
#21 = DIRECTION ( 'NONE',  ( 1.000000000000000000, 0.000000000000000000, 0.000000000000000000 ) ) ;
#22 = UNCERTAINTY_MEASURE_WITH_UNIT (LENGTH_MEASURE( 1.000000000000000082E-05 ), #116, 'distance_accuracy_value', 'NONE');
#23 = APPLICATION_PROTOCOL_DEFINITION ( 'international standard', 'config_control_design', 1994, #33 ) ;
#24 = EDGE_CURVE ( 'NONE', #206, #92, #123, .T. ) ;
#25 = EDGE_LOOP ( 'NONE', ( #207, #50 ) ) ;
#26 = DIRECTION ( 'NONE',  ( 0.000000000000000000, 0.000000000000000000, 1.000000000000000000 ) ) ;
#27 = EDGE_CURVE ( 'NONE', #13, #166, #95, .T. ) ;
#28 = DIRECTION ( 'NONE',  ( 6.123233995736764803E-17, 1.000000000000000000, 0.000000000000000000 ) ) ;
#29 = EDGE_LOOP ( 'NONE', ( #48, #220 ) ) ;
#30 = VERTEX_POINT ( 'NONE', #180 ) ;
#31 = AXIS2_PLACEMENT_3D ( 'NONE', #16, #190, #154 ) ;
#32 = DIRECTION ( 'NONE',  ( 1.000000000000000000, 0.000000000000000000, 0.000000000000000000 ) ) ;
#33 = APPLICATION_CONTEXT ( 'configuration controlled 3d designs of mechanical parts and assemblies' ) ;
#34 = DIRECTION ( 'NONE',  ( 0.000000000000000000, 0.000000000000000000, 1.000000000000000000 ) ) ;
#35 = CARTESIAN_POINT ( 'NONE',  ( 0.000000000000000000, 0.000000000000000000, 0.000000000000000000 ) ) ;
#36 = AXIS2_PLACEMENT_3D ( 'NONE', #134, #213, #39 ) ;
#37 = CIRCLE ( 'NONE', #232, 24.14999999999999858 ) ;
#38 = EDGE_CURVE ( 'NONE', #46, #125, #187, .T. ) ;
#39 = DIRECTION ( 'NONE',  ( 0.000000000000000000, 0.000000000000000000, -1.000000000000000000 ) ) ;
#40 = AXIS2_PLACEMENT_3D ( 'NONE', #105, #204, #149 ) ;
#41 = PERSON_AND_ORGANIZATION ( #200, #91 ) ;
#42 = TOROIDAL_SURFACE ( 'NONE', #246, 57.10000000000000142, 20.46999999999999886 ) ;
#43 = PERSON_AND_ORGANIZATION ( #200, #91 ) ;
#44 = PERSON_AND_ORGANIZATION_ROLE ( 'creator' ) ;
#45 = AXIS2_PLACEMENT_3D ( 'NONE', #75, #34, #152 ) ;
#46 = VERTEX_POINT ( 'NONE', #55 ) ;
#47 = DIRECTION ( 'NONE',  ( -1.000000000000000000, -0.000000000000000000, -0.000000000000000000 ) ) ;
#48 = ORIENTED_EDGE ( 'NONE', *, *, #15, .T. ) ;
#49 = CC_DESIGN_APPROVAL ( #19, ( #84 ) ) ;
#50 = ORIENTED_EDGE ( 'NONE', *, *, #98, .T. ) ;
#51 = ORIENTED_EDGE ( 'NONE', *, *, #24, .F. ) ;
#52 = EDGE_CURVE ( 'NONE', #30, #125, #100, .T. ) ;
#53 =( NAMED_UNIT ( * ) SI_UNIT ( $, .STERADIAN. ) SOLID_ANGLE_UNIT ( ) );
#54 = TOROIDAL_SURFACE ( 'NONE', #184, 57.10000000000000142, 20.46999999999999886 ) ;
#55 = CARTESIAN_POINT ( 'NONE',  ( 0.000000000000000000, 36.62999999999999545, -2.506851997854631764E-15 ) ) ;
#56 = CARTESIAN_POINT ( 'NONE',  ( -81.24999999999998579, 4.975127621536120916E-15, 0.000000000000000000 ) ) ;
#57 = PLANE ( 'NONE',  #242 ) ;
#58 = CIRCLE ( 'NONE', #201, 24.14999999999999858 ) ;
#59 = CC_DESIGN_APPROVAL ( #236, ( #214 ) ) ;
#60 = FACE_OUTER_BOUND ( 'NONE', #185, .T. ) ;
#61 = MECHANICAL_CONTEXT ( 'NONE', #33, 'mechanical' ) ;
#62 = PRODUCT ( 'OEM-40-LR-40-316L_REV_', 'OEM-40-LR-40-316L_REV_', '', ( #61 ) ) ;
#63 = DATE_AND_TIME ( #140, #73 ) ;
#64 = CALENDAR_DATE ( 2025, 20, 11 ) ;
#65 = APPROVAL_PERSON_ORGANIZATION ( #252, #247, #177 ) ;
#66 = DATE_AND_TIME ( #5, #253 ) ;
#67 = EDGE_LOOP ( 'NONE', ( #69, #222, #106, #51 ) ) ;
#68 = APPROVAL_PERSON_ORGANIZATION ( #141, #236, #159 ) ;
#69 = ORIENTED_EDGE ( 'NONE', *, *, #98, .F. ) ;
#70 = EDGE_LOOP ( 'NONE', ( #110, #131, #221, #145 ) ) ;
#71 = CC_DESIGN_PERSON_AND_ORGANIZATION_ASSIGNMENT ( #43, #157, ( #214 ) ) ;
#72 = DIRECTION ( 'NONE',  ( 0.000000000000000000, 0.000000000000000000, 1.000000000000000000 ) ) ;
#73 = LOCAL_TIME ( 12, 9, 21.00000000000000000, #104 ) ;
#74 = ADVANCED_FACE ( 'NONE', ( #94, #60 ), #57, .F. ) ;
#75 = CARTESIAN_POINT ( 'NONE',  ( 0.000000000000000000, 0.000000000000000000, 0.000000000000000000 ) ) ;
#76 = CLOSED_SHELL ( 'NONE', ( #3, #117, #186, #74, #119, #107 ) ) ;
#77 = CARTESIAN_POINT ( 'NONE',  ( 0.000000000000000000, 0.000000000000000000, 0.000000000000000000 ) ) ;
#78 = DIRECTION ( 'NONE',  ( 1.000000000000000000, 0.000000000000000000, 0.000000000000000000 ) ) ;
#79 = DIRECTION ( 'NONE',  ( -1.000000000000000000, -0.000000000000000000, -0.000000000000000000 ) ) ;
#80 = CIRCLE ( 'NONE', #36, 24.14999999999999858 ) ;
#81 = DATE_TIME_ROLE ( 'creation_date' ) ;
#82 = DATE_TIME_ROLE ( 'classification_date' ) ;
#83 = APPROVAL_ROLE ( '' ) ;
#84 = PRODUCT_DEFINITION ( 'UNKNOWN', '', #160, #188 ) ;
#85 = APPROVAL_DATE_TIME ( #237, #19 ) ;
#86 = ORIENTED_EDGE ( 'NONE', *, *, #38, .T. ) ;
#87 = MANIFOLD_SOLID_BREP ( 'Sweep1', #76 ) ;
#88 = ORIENTED_EDGE ( 'NONE', *, *, #52, .T. ) ;
#89 = ORIENTED_EDGE ( 'NONE', *, *, #15, .F. ) ;
#90 = AXIS2_PLACEMENT_3D ( 'NONE', #77, #215, #113 ) ;
#91 = ORGANIZATION ( 'UNSPECIFIED', 'UNSPECIFIED', '' ) ;
#92 = VERTEX_POINT ( 'NONE', #210 ) ;
#93 = CARTESIAN_POINT ( 'NONE',  ( 0.000000000000000000, 57.10000000000000142, 0.000000000000000000 ) ) ;
#94 = FACE_BOUND ( 'NONE', #240, .T. ) ;
#95 = CIRCLE ( 'NONE', #40, 81.24999999999998579 ) ;
#96 = DIRECTION ( 'NONE',  ( 1.000000000000000000, 0.000000000000000000, 0.000000000000000000 ) ) ;
#97 = DIRECTION ( 'NONE',  ( 0.000000000000000000, 0.000000000000000000, -1.000000000000000000 ) ) ;
#98 = EDGE_CURVE ( 'NONE', #13, #206, #58, .T. ) ;
#99 = CARTESIAN_POINT ( 'NONE',  ( 0.000000000000000000, 77.56999999999999318, 0.000000000000000000 ) ) ;
#100 = CIRCLE ( 'NONE', #4, 20.46999999999999886 ) ;
#101 = COORDINATED_UNIVERSAL_TIME_OFFSET ( 10, 0, .AHEAD. ) ;
#102 = EDGE_CURVE ( 'NONE', #147, #30, #6, .T. ) ;
#103 = APPROVAL_STATUS ( 'not_yet_approved' ) ;
#104 = COORDINATED_UNIVERSAL_TIME_OFFSET ( 10, 0, .AHEAD. ) ;
#105 = CARTESIAN_POINT ( 'NONE',  ( 0.000000000000000000, 0.000000000000000000, 0.000000000000000000 ) ) ;
#106 = ORIENTED_EDGE ( 'NONE', *, *, #9, .T. ) ;
#107 = ADVANCED_FACE ( 'NONE', ( #189 ), #20, .T. ) ;
#108 = CARTESIAN_POINT ( 'NONE',  ( 0.000000000000000000, 81.24999999999998579, 0.000000000000000000 ) ) ;
#109 = ORIENTED_EDGE ( 'NONE', *, *, #176, .T. ) ;
#110 = ORIENTED_EDGE ( 'NONE', *, *, #27, .F. ) ;
#111 = CIRCLE ( 'NONE', #251, 20.46999999999999886 ) ;
#112 = AXIS2_PLACEMENT_3D ( 'NONE', #195, #202, #21 ) ;
#113 = DIRECTION ( 'NONE',  ( 1.000000000000000000, 0.000000000000000000, 0.000000000000000000 ) ) ;
#114 = CARTESIAN_POINT ( 'NONE',  ( -36.62999999999999545, 2.242940612638376463E-15, -2.506851997854631764E-15 ) ) ;
#115 = CARTESIAN_POINT ( 'NONE',  ( 0.000000000000000000, 57.10000000000000142, 0.000000000000000000 ) ) ;
#116 =( LENGTH_UNIT ( ) NAMED_UNIT ( * ) SI_UNIT ( .MILLI., .METRE. ) );
#117 = ADVANCED_FACE ( 'NONE', ( #194 ), #143, .T. ) ;
#118 = DATE_AND_TIME ( #1, #150 ) ;
#119 = ADVANCED_FACE ( 'NONE', ( #135, #230 ), #192, .T. ) ;
#120 = PERSON_AND_ORGANIZATION ( #200, #91 ) ;
#121 = PERSON_AND_ORGANIZATION ( #200, #91 ) ;
#122 = SHAPE_DEFINITION_REPRESENTATION ( #124, #191 ) ;
#123 = CIRCLE ( 'NONE', #12, 32.95000000000000284 ) ;
#124 = PRODUCT_DEFINITION_SHAPE ( 'NONE', 'NONE',  #84 ) ;
#125 = VERTEX_POINT ( 'NONE', #114 ) ;
#126 = ORIENTED_EDGE ( 'NONE', *, *, #9, .F. ) ;
#127 = AXIS2_PLACEMENT_3D ( 'NONE', #146, #28, #241 ) ;
#128 = FACE_OUTER_BOUND ( 'NONE', #11, .T. ) ;
#129 = EDGE_CURVE ( 'NONE', #206, #13, #37, .T. ) ;
#130 = ORIENTED_EDGE ( 'NONE', *, *, #38, .F. ) ;
#131 = ORIENTED_EDGE ( 'NONE', *, *, #129, .F. ) ;
#132 = DIRECTION ( 'NONE',  ( 1.000000000000000000, 0.000000000000000000, 0.000000000000000000 ) ) ;
#133 = DIRECTION ( 'NONE',  ( 0.000000000000000000, 0.000000000000000000, -1.000000000000000000 ) ) ;
#134 = CARTESIAN_POINT ( 'NONE',  ( -57.10000000000000142, 3.496366611565692345E-15, 0.000000000000000000 ) ) ;
#135 = FACE_BOUND ( 'NONE', #29, .T. ) ;
#136 = CIRCLE ( 'NONE', #127, 24.14999999999999858 ) ;
#137 = PRODUCT_RELATED_PRODUCT_CATEGORY ( 'detail', '', ( #62 ) ) ;
#138 = PERSON_AND_ORGANIZATION_ROLE ( 'design_owner' ) ;
#139 = PERSON_AND_ORGANIZATION ( #200, #91 ) ;
#140 = CALENDAR_DATE ( 2025, 20, 11 ) ;
#141 = PERSON_AND_ORGANIZATION ( #200, #91 ) ;
#142 = APPROVAL_STATUS ( 'not_yet_approved' ) ;
#143 = TOROIDAL_SURFACE ( 'NONE', #90, 57.10000000000000142, 24.14999999999999858 ) ;
#144 = CC_DESIGN_PERSON_AND_ORGANIZATION_ASSIGNMENT ( #120, #138, ( #62 ) ) ;
#145 = ORIENTED_EDGE ( 'NONE', *, *, #224, .T. ) ;
#146 = CARTESIAN_POINT ( 'NONE',  ( -57.10000000000000142, 3.496366611565692345E-15, 0.000000000000000000 ) ) ;
#147 = VERTEX_POINT ( 'NONE', #99 ) ;
#148 = AXIS2_PLACEMENT_3D ( 'NONE', #211, #156, #32 ) ;
#149 = DIRECTION ( 'NONE',  ( 1.000000000000000000, 0.000000000000000000, 0.000000000000000000 ) ) ;
#150 = LOCAL_TIME ( 12, 9, 21.00000000000000000, #101 ) ;
#151 = CC_DESIGN_PERSON_AND_ORGANIZATION_ASSIGNMENT ( #219, #174, ( #160 ) ) ;
#152 = DIRECTION ( 'NONE',  ( 1.000000000000000000, 0.000000000000000000, 0.000000000000000000 ) ) ;
#153 = LOCAL_TIME ( 12, 9, 21.00000000000000000, #7 ) ;
#154 = DIRECTION ( 'NONE',  ( 0.000000000000000000, 0.000000000000000000, -1.000000000000000000 ) ) ;
#155 = FACE_OUTER_BOUND ( 'NONE', #208, .T. ) ;
#156 = DIRECTION ( 'NONE',  ( 0.000000000000000000, 0.000000000000000000, 1.000000000000000000 ) ) ;
#157 = PERSON_AND_ORGANIZATION_ROLE ( 'classification_officer' ) ;
#158 = APPROVAL_STATUS ( 'not_yet_approved' ) ;
#159 = APPROVAL_ROLE ( '' ) ;
#160 = PRODUCT_DEFINITION_FORMATION_WITH_SPECIFIED_SOURCE ( 'ANY', '', #62, .NOT_KNOWN. ) ;
#161 = PERSON_AND_ORGANIZATION_ROLE ( 'creator' ) ;
#162 = CC_DESIGN_DATE_AND_TIME_ASSIGNMENT ( #66, #82, ( #214 ) ) ;
#163 = CIRCLE ( 'NONE', #178, 20.46999999999999886 ) ;
#164 = ORIENTED_EDGE ( 'NONE', *, *, #102, .F. ) ;
#165 = ORIENTED_EDGE ( 'NONE', *, *, #52, .F. ) ;
#166 = VERTEX_POINT ( 'NONE', #56 ) ;
#167 = CC_DESIGN_SECURITY_CLASSIFICATION ( #214, ( #160 ) ) ;
#168 = DIRECTION ( 'NONE',  ( 0.000000000000000000, 0.000000000000000000, -1.000000000000000000 ) ) ;
#169 = ORIENTED_EDGE ( 'NONE', *, *, #102, .T. ) ;
#170 = CARTESIAN_POINT ( 'NONE',  ( -57.10000000000000142, 3.496366611565692345E-15, 0.000000000000000000 ) ) ;
#171 = DIRECTION ( 'NONE',  ( 0.000000000000000000, 0.000000000000000000, -1.000000000000000000 ) ) ;
#172 = CARTESIAN_POINT ( 'NONE',  ( 0.000000000000000000, 32.95000000000000284, -2.957522019940857930E-15 ) ) ;
#173 = DIRECTION ( 'NONE',  ( 0.000000000000000000, 0.000000000000000000, -1.000000000000000000 ) ) ;
#174 = PERSON_AND_ORGANIZATION_ROLE ( 'design_supplier' ) ;
#175 = APPROVAL_PERSON_ORGANIZATION ( #121, #19, #83 ) ;
#176 = EDGE_CURVE ( 'NONE', #125, #30, #163, .T. ) ;
#177 = APPROVAL_ROLE ( '' ) ;
#178 = AXIS2_PLACEMENT_3D ( 'NONE', #170, #212, #18 ) ;
#179 = CC_DESIGN_PERSON_AND_ORGANIZATION_ASSIGNMENT ( #41, #161, ( #84 ) ) ;
#180 = CARTESIAN_POINT ( 'NONE',  ( -77.56999999999999318, 4.749792610493007833E-15, 0.000000000000000000 ) ) ;
#181 = ORIENTED_EDGE ( 'NONE', *, *, #176, .F. ) ;
#182 = CARTESIAN_POINT ( 'NONE',  ( 0.000000000000000000, 57.10000000000000142, 0.000000000000000000 ) ) ;
#183 = CARTESIAN_POINT ( 'NONE',  ( 0.000000000000000000, 0.000000000000000000, 0.000000000000000000 ) ) ;
#184 = AXIS2_PLACEMENT_3D ( 'NONE', #35, #17, #96 ) ;
#185 = EDGE_LOOP ( 'NONE', ( #8, #126 ) ) ;
#186 = ADVANCED_FACE ( 'NONE', ( #155 ), #54, .F. ) ;
#187 = CIRCLE ( 'NONE', #209, 36.62999999999999545 ) ;
#188 = DESIGN_CONTEXT ( 'detailed design', #245, 'design' ) ;
#189 = FACE_OUTER_BOUND ( 'NONE', #70, .T. ) ;
#190 = DIRECTION ( 'NONE',  ( 1.000000000000000000, 0.000000000000000000, 0.000000000000000000 ) ) ;
#191 = ADVANCED_BREP_SHAPE_REPRESENTATION ( 'OEM-40-LR-40-316L_REV_', ( #87, #112 ), #227 ) ;
#192 = PLANE ( 'NONE',  #31 ) ;
#193 = LOCAL_TIME ( 12, 9, 21.00000000000000000, #235 ) ;
#194 = FACE_OUTER_BOUND ( 'NONE', #67, .T. ) ;
#195 = CARTESIAN_POINT ( 'NONE',  ( 0.000000000000000000, 0.000000000000000000, 0.000000000000000000 ) ) ;
#196 = APPROVAL_DATE_TIME ( #218, #236 ) ;
#197 = APPROVAL_DATE_TIME ( #63, #247 ) ;
#198 = CC_DESIGN_PERSON_AND_ORGANIZATION_ASSIGNMENT ( #139, #44, ( #160 ) ) ;
#199 = CIRCLE ( 'NONE', #231, 20.46999999999999886 ) ;
#200 = PERSON ( 'UNSPECIFIED', 'UNSPECIFIED', 'UNSPECIFIED', ('UNSPECIFIED'), ('UNSPECIFIED'), ('UNSPECIFIED') ) ;
#201 = AXIS2_PLACEMENT_3D ( 'NONE', #250, #132, #248 ) ;
#202 = DIRECTION ( 'NONE',  ( 0.000000000000000000, 0.000000000000000000, 1.000000000000000000 ) ) ;
#203 = DIRECTION ( 'NONE',  ( 0.000000000000000000, 0.000000000000000000, 1.000000000000000000 ) ) ;
#204 = DIRECTION ( 'NONE',  ( 0.000000000000000000, 0.000000000000000000, 1.000000000000000000 ) ) ;
#205 = CC_DESIGN_DATE_AND_TIME_ASSIGNMENT ( #118, #81, ( #84 ) ) ;
#206 = VERTEX_POINT ( 'NONE', #172 ) ;
#207 = ORIENTED_EDGE ( 'NONE', *, *, #129, .T. ) ;
#208 = EDGE_LOOP ( 'NONE', ( #164, #89, #86, #109 ) ) ;
#209 = AXIS2_PLACEMENT_3D ( 'NONE', #223, #26, #78 ) ;
#210 = CARTESIAN_POINT ( 'NONE',  ( -32.95000000000000284, 2.017605601595263775E-15, -2.957522019940857930E-15 ) ) ;
#211 = CARTESIAN_POINT ( 'NONE',  ( 0.000000000000000000, 0.000000000000000000, 0.000000000000000000 ) ) ;
#212 = DIRECTION ( 'NONE',  ( -6.123233995736764803E-17, -1.000000000000000000, -0.000000000000000000 ) ) ;
#213 = DIRECTION ( 'NONE',  ( 6.123233995736764803E-17, 1.000000000000000000, 0.000000000000000000 ) ) ;
#214 = SECURITY_CLASSIFICATION ( '', '', #217 ) ;
#215 = DIRECTION ( 'NONE',  ( 0.000000000000000000, 0.000000000000000000, 1.000000000000000000 ) ) ;
#216 = APPLICATION_PROTOCOL_DEFINITION ( 'international standard', 'config_control_design', 1994, #245 ) ;
#217 = SECURITY_CLASSIFICATION_LEVEL ( 'unclassified' ) ;
#218 = DATE_AND_TIME ( #64, #193 ) ;
#219 = PERSON_AND_ORGANIZATION ( #200, #91 ) ;
#220 = ORIENTED_EDGE ( 'NONE', *, *, #233, .T. ) ;
#221 = ORIENTED_EDGE ( 'NONE', *, *, #24, .T. ) ;
#222 = ORIENTED_EDGE ( 'NONE', *, *, #27, .T. ) ;
#223 = CARTESIAN_POINT ( 'NONE',  ( 0.000000000000000000, 0.000000000000000000, -2.506851997854632159E-15 ) ) ;
#224 = EDGE_CURVE ( 'NONE', #92, #166, #80, .T. ) ;
#225 = ORIENTED_EDGE ( 'NONE', *, *, #233, .F. ) ;
#226 = DIRECTION ( 'NONE',  ( 6.123233995736764803E-17, 1.000000000000000000, 0.000000000000000000 ) ) ;
#227 =( GEOMETRIC_REPRESENTATION_CONTEXT ( 3 ) GLOBAL_UNCERTAINTY_ASSIGNED_CONTEXT ( ( #22 ) ) GLOBAL_UNIT_ASSIGNED_CONTEXT ( ( #116, #244, #53 ) ) REPRESENTATION_CONTEXT ( 'NONE', 'WORKASPACE' ) );
#228 = CARTESIAN_POINT ( 'NONE',  ( -57.10000000000000142, 3.496366611565692345E-15, 0.000000000000000000 ) ) ;
#229 = DIRECTION ( 'NONE',  ( 1.000000000000000000, 0.000000000000000000, 0.000000000000000000 ) ) ;
#230 = FACE_OUTER_BOUND ( 'NONE', #25, .T. ) ;
#231 = AXIS2_PLACEMENT_3D ( 'NONE', #182, #47, #168 ) ;
#232 = AXIS2_PLACEMENT_3D ( 'NONE', #93, #229, #173 ) ;
#233 = EDGE_CURVE ( 'NONE', #147, #46, #111, .T. ) ;
#234 = CALENDAR_DATE ( 2025, 20, 11 ) ;
#235 = COORDINATED_UNIVERSAL_TIME_OFFSET ( 10, 0, .AHEAD. ) ;
#236 = APPROVAL ( #142, 'UNSPECIFIED' ) ;
#237 = DATE_AND_TIME ( #234, #153 ) ;
#238 = CC_DESIGN_APPROVAL ( #247, ( #160 ) ) ;
#239 = DIRECTION ( 'NONE',  ( 1.000000000000000000, 0.000000000000000000, 0.000000000000000000 ) ) ;
#240 = EDGE_LOOP ( 'NONE', ( #181, #165 ) ) ;
#241 = DIRECTION ( 'NONE',  ( 0.000000000000000000, 0.000000000000000000, -1.000000000000000000 ) ) ;
#242 = AXIS2_PLACEMENT_3D ( 'NONE', #249, #226, #171 ) ;
#243 = CARTESIAN_POINT ( 'NONE',  ( 0.000000000000000000, 0.000000000000000000, -2.957522019940857930E-15 ) ) ;
#244 =( NAMED_UNIT ( * ) PLANE_ANGLE_UNIT ( ) SI_UNIT ( $, .RADIAN. ) );
#245 = APPLICATION_CONTEXT ( 'configuration controlled 3d designs of mechanical parts and assemblies' ) ;
#246 = AXIS2_PLACEMENT_3D ( 'NONE', #183, #203, #239 ) ;
#247 = APPROVAL ( #158, 'UNSPECIFIED' ) ;
#248 = DIRECTION ( 'NONE',  ( 0.000000000000000000, 0.000000000000000000, -1.000000000000000000 ) ) ;
#249 = CARTESIAN_POINT ( 'NONE',  ( -57.10000000000000142, 3.496366611565692345E-15, 0.000000000000000000 ) ) ;
#250 = CARTESIAN_POINT ( 'NONE',  ( 0.000000000000000000, 57.10000000000000142, 0.000000000000000000 ) ) ;
#251 = AXIS2_PLACEMENT_3D ( 'NONE', #115, #79, #97 ) ;
#252 = PERSON_AND_ORGANIZATION ( #200, #91 ) ;
#253 = LOCAL_TIME ( 12, 9, 21.00000000000000000, #2 ) ;
ENDSEC;
END-ISO-10303-21;
