ISO-10303-21;
HEADER;
FILE_DESCRIPTION (( 'STEP AP203' ),
    '1' );
FILE_NAME ('OEM-40-SR-40-316L_REV_.step',
    '2025-11-20T01:05:18',
    ( '' ),
    ( '' ),
    'SwSTEP 2.0',
    'SolidWorks 2025',
    '' );
FILE_SCHEMA (( 'CONFIG_CONTROL_DESIGN' ));
ENDSEC;

DATA;
#1 = AXIS2_PLACEMENT_3D ( 'NONE', #35, #139, #233 ) ;
#2 = ORIENTED_EDGE ( 'NONE', *, *, #178, .F. ) ;
#3 = AXIS2_PLACEMENT_3D ( 'NONE', #172, #249, #75 ) ;
#4 = EDGE_LOOP ( 'NONE', ( #128, #2 ) ) ;
#5 = ORIENTED_EDGE ( 'NONE', *, *, #122, .F. ) ;
#6 = DATE_TIME_ROLE ( 'creation_date' ) ;
#7 = DIRECTION ( 'NONE',  ( 0.000000000000000000, 0.000000000000000000, 1.000000000000000000 ) ) ;
#8 = PERSON_AND_ORGANIZATION ( #116, #57 ) ;
#9 = DIRECTION ( 'NONE',  ( 0.000000000000000000, 0.000000000000000000, 1.000000000000000000 ) ) ;
#10 = CARTESIAN_POINT ( 'NONE',  ( 0.000000000000000000, 38.00000000000000000, 0.000000000000000000 ) ) ;
#11 = DIRECTION ( 'NONE',  ( 0.000000000000000000, 0.000000000000000000, -1.000000000000000000 ) ) ;
#12 = AXIS2_PLACEMENT_3D ( 'NONE', #130, #205, #203 ) ;
#13 = CC_DESIGN_APPROVAL ( #100, ( #67 ) ) ;
#14 = CARTESIAN_POINT ( 'NONE',  ( 0.000000000000000000, 62.14999999999999858, 0.000000000000000000 ) ) ;
#15 = EDGE_CURVE ( 'NONE', #167, #184, #159, .T. ) ;
#16 = APPROVAL_ROLE ( '' ) ;
#17 = CARTESIAN_POINT ( 'NONE',  ( -38.00000000000000000, 2.326828918379970970E-15, 0.000000000000000000 ) ) ;
#18 = APPLICATION_CONTEXT ( 'configuration controlled 3d designs of mechanical parts and assemblies' ) ;
#19 = CLOSED_SHELL ( 'NONE', ( #40, #80, #98, #166, #62, #240 ) ) ;
#20 = EDGE_CURVE ( 'NONE', #224, #226, #231, .T. ) ;
#21 = ORIENTED_EDGE ( 'NONE', *, *, #132, .T. ) ;
#22 = TOROIDAL_SURFACE ( 'NONE', #1, 38.00000000000000000, 24.14999999999999858 ) ;
#23 = EDGE_CURVE ( 'NONE', #184, #126, #33, .T. ) ;
#24 = DIRECTION ( 'NONE',  ( 6.123233995736766036E-17, 1.000000000000000000, 0.000000000000000000 ) ) ;
#25 = APPROVAL_DATE_TIME ( #204, #155 ) ;
#26 = DIRECTION ( 'NONE',  ( 0.000000000000000000, 0.000000000000000000, 1.000000000000000000 ) ) ;
#27 = EDGE_LOOP ( 'NONE', ( #160, #221 ) ) ;
#28 = DATE_TIME_ROLE ( 'classification_date' ) ;
#29 = CIRCLE ( 'NONE', #119, 13.85000000000000142 ) ;
#30 = FACE_BOUND ( 'NONE', #49, .T. ) ;
#31 = CARTESIAN_POINT ( 'NONE',  ( -62.14999999999999858, 3.805589928350399935E-15, 0.000000000000000000 ) ) ;
#32 = FACE_OUTER_BOUND ( 'NONE', #243, .T. ) ;
#33 = CIRCLE ( 'NONE', #52, 58.46999999999999176 ) ;
#34 = CC_DESIGN_APPROVAL ( #250, ( #220 ) ) ;
#35 = CARTESIAN_POINT ( 'NONE',  ( 0.000000000000000000, 0.000000000000000000, 0.000000000000000000 ) ) ;
#36 = CARTESIAN_POINT ( 'NONE',  ( 0.000000000000000000, 38.00000000000000000, 0.000000000000000000 ) ) ;
#37 = AXIS2_PLACEMENT_3D ( 'NONE', #133, #74, #112 ) ;
#38 = CC_DESIGN_SECURITY_CLASSIFICATION ( #67, ( #220 ) ) ;
#39 = APPLICATION_PROTOCOL_DEFINITION ( 'international standard', 'config_control_design', 1994, #18 ) ;
#40 = ADVANCED_FACE ( 'NONE', ( #105 ), #158, .F. ) ;
#41 = DATE_AND_TIME ( #197, #232 ) ;
#42 = APPLICATION_PROTOCOL_DEFINITION ( 'international standard', 'config_control_design', 1994, #110 ) ;
#43 = CARTESIAN_POINT ( 'NONE',  ( -38.00000000000000000, 2.326828918379970970E-15, 0.000000000000000000 ) ) ;
#44 = DIRECTION ( 'NONE',  ( 1.000000000000000000, 0.000000000000000000, 0.000000000000000000 ) ) ;
#45 = VERTEX_POINT ( 'NONE', #164 ) ;
#46 = PRODUCT_RELATED_PRODUCT_CATEGORY ( 'detail', '', ( #190 ) ) ;
#47 = ORIENTED_EDGE ( 'NONE', *, *, #20, .F. ) ;
#48 = COORDINATED_UNIVERSAL_TIME_OFFSET ( 10, 0, .AHEAD. ) ;
#49 = EDGE_LOOP ( 'NONE', ( #127, #84 ) ) ;
#50 = PERSON_AND_ORGANIZATION_ROLE ( 'classification_officer' ) ;
#51 = FACE_OUTER_BOUND ( 'NONE', #27, .T. ) ;
#52 = AXIS2_PLACEMENT_3D ( 'NONE', #103, #26, #185 ) ;
#53 = DIRECTION ( 'NONE',  ( 1.000000000000000000, 0.000000000000000000, 0.000000000000000000 ) ) ;
#54 = CALENDAR_DATE ( 2025, 20, 11 ) ;
#55 =( NAMED_UNIT ( * ) PLANE_ANGLE_UNIT ( ) SI_UNIT ( $, .RADIAN. ) );
#56 = CARTESIAN_POINT ( 'NONE',  ( -13.85000000000000142, 8.480679084095420054E-16, -2.957522019940857930E-15 ) ) ;
#57 = ORGANIZATION ( 'UNSPECIFIED', 'UNSPECIFIED', '' ) ;
#58 = FACE_BOUND ( 'NONE', #4, .T. ) ;
#59 = EDGE_CURVE ( 'NONE', #167, #45, #186, .T. ) ;
#60 = DESIGN_CONTEXT ( 'detailed design', #18, 'design' ) ;
#61 = ORIENTED_EDGE ( 'NONE', *, *, #132, .F. ) ;
#62 = ADVANCED_FACE ( 'NONE', ( #30, #51 ), #77, .T. ) ;
#63 = COORDINATED_UNIVERSAL_TIME_OFFSET ( 10, 0, .AHEAD. ) ;
#64 = ORIENTED_EDGE ( 'NONE', *, *, #215, .F. ) ;
#65 = ORIENTED_EDGE ( 'NONE', *, *, #20, .T. ) ;
#66 = APPROVAL_STATUS ( 'not_yet_approved' ) ;
#67 = SECURITY_CLASSIFICATION ( '', '', #163 ) ;
#68 = PERSON_AND_ORGANIZATION ( #116, #57 ) ;
#69 = CC_DESIGN_DATE_AND_TIME_ASSIGNMENT ( #147, #28, ( #67 ) ) ;
#70 = CARTESIAN_POINT ( 'NONE',  ( 0.000000000000000000, 0.000000000000000000, -2.506851997854632159E-15 ) ) ;
#71 = COORDINATED_UNIVERSAL_TIME_OFFSET ( 10, 0, .AHEAD. ) ;
#72 = PLANE ( 'NONE',  #3 ) ;
#73 = CIRCLE ( 'NONE', #217, 24.14999999999999858 ) ;
#74 = DIRECTION ( 'NONE',  ( 0.000000000000000000, 0.000000000000000000, 1.000000000000000000 ) ) ;
#75 = DIRECTION ( 'NONE',  ( 0.000000000000000000, 0.000000000000000000, -1.000000000000000000 ) ) ;
#76 = CARTESIAN_POINT ( 'NONE',  ( 0.000000000000000000, 17.53000000000000114, -2.506851997854632159E-15 ) ) ;
#77 = PLANE ( 'NONE',  #199 ) ;
#78 = AXIS2_PLACEMENT_3D ( 'NONE', #123, #200, #44 ) ;
#79 = CIRCLE ( 'NONE', #223, 24.14999999999999858 ) ;
#80 = ADVANCED_FACE ( 'NONE', ( #174 ), #219, .T. ) ;
#81 = ORIENTED_EDGE ( 'NONE', *, *, #162, .T. ) ;
#82 = LOCAL_TIME ( 12, 5, 18.00000000000000000, #170 ) ;
#83 = MECHANICAL_CONTEXT ( 'NONE', #110, 'mechanical' ) ;
#84 = ORIENTED_EDGE ( 'NONE', *, *, #89, .T. ) ;
#85 = DATE_AND_TIME ( #111, #165 ) ;
#86 = ORIENTED_EDGE ( 'NONE', *, *, #23, .T. ) ;
#87 = ORIENTED_EDGE ( 'NONE', *, *, #59, .T. ) ;
#88 = APPROVAL_STATUS ( 'not_yet_approved' ) ;
#89 = EDGE_CURVE ( 'NONE', #184, #167, #114, .T. ) ;
#90 = DIRECTION ( 'NONE',  ( 1.000000000000000000, 0.000000000000000000, 0.000000000000000000 ) ) ;
#91 = PERSON_AND_ORGANIZATION_ROLE ( 'creator' ) ;
#92 = DIRECTION ( 'NONE',  ( -6.123233995736766036E-17, -1.000000000000000000, -0.000000000000000000 ) ) ;
#93 = DIRECTION ( 'NONE',  ( 0.000000000000000000, 0.000000000000000000, -1.000000000000000000 ) ) ;
#94 = CC_DESIGN_DATE_AND_TIME_ASSIGNMENT ( #206, #6, ( #198 ) ) ;
#95 = CIRCLE ( 'NONE', #175, 62.14999999999999858 ) ;
#96 = DIRECTION ( 'NONE',  ( 0.000000000000000000, 0.000000000000000000, -1.000000000000000000 ) ) ;
#97 = DIRECTION ( 'NONE',  ( 1.000000000000000000, 0.000000000000000000, 0.000000000000000000 ) ) ;
#98 = ADVANCED_FACE ( 'NONE', ( #32 ), #143, .F. ) ;
#99 = DIRECTION ( 'NONE',  ( 1.000000000000000000, 0.000000000000000000, 0.000000000000000000 ) ) ;
#100 = APPROVAL ( #168, 'UNSPECIFIED' ) ;
#101 = CIRCLE ( 'NONE', #151, 24.14999999999999858 ) ;
#102 = VERTEX_POINT ( 'NONE', #14 ) ;
#103 = CARTESIAN_POINT ( 'NONE',  ( 0.000000000000000000, 0.000000000000000000, 0.000000000000000000 ) ) ;
#104 = APPROVAL_ROLE ( '' ) ;
#105 = FACE_OUTER_BOUND ( 'NONE', #145, .T. ) ;
#106 = PERSON_AND_ORGANIZATION ( #116, #57 ) ;
#107 = DIRECTION ( 'NONE',  ( 0.000000000000000000, 0.000000000000000000, -1.000000000000000000 ) ) ;
#108 = APPROVAL_PERSON_ORGANIZATION ( #109, #100, #16 ) ;
#109 = PERSON_AND_ORGANIZATION ( #116, #57 ) ;
#110 = APPLICATION_CONTEXT ( 'configuration controlled 3d designs of mechanical parts and assemblies' ) ;
#111 = CALENDAR_DATE ( 2025, 20, 11 ) ;
#112 = DIRECTION ( 'NONE',  ( 1.000000000000000000, 0.000000000000000000, 0.000000000000000000 ) ) ;
#113 = CARTESIAN_POINT ( 'NONE',  ( 0.000000000000000000, 58.46999999999999176, 0.000000000000000000 ) ) ;
#114 = CIRCLE ( 'NONE', #212, 20.46999999999999886 ) ;
#115 = DIRECTION ( 'NONE',  ( 0.000000000000000000, 0.000000000000000000, 1.000000000000000000 ) ) ;
#116 = PERSON ( 'UNSPECIFIED', 'UNSPECIFIED', 'UNSPECIFIED', ('UNSPECIFIED'), ('UNSPECIFIED'), ('UNSPECIFIED') ) ;
#117 = DIRECTION ( 'NONE',  ( 0.000000000000000000, 0.000000000000000000, -1.000000000000000000 ) ) ;
#118 = CC_DESIGN_PERSON_AND_ORGANIZATION_ASSIGNMENT ( #238, #50, ( #67 ) ) ;
#119 = AXIS2_PLACEMENT_3D ( 'NONE', #244, #115, #234 ) ;
#120 = LOCAL_TIME ( 12, 5, 18.00000000000000000, #71 ) ;
#121 = ADVANCED_BREP_SHAPE_REPRESENTATION ( 'OEM-40-SR-40-316L_REV_', ( #138, #78 ), #137 ) ;
#122 = EDGE_CURVE ( 'NONE', #102, #161, #101, .T. ) ;
#123 = CARTESIAN_POINT ( 'NONE',  ( 0.000000000000000000, 0.000000000000000000, 0.000000000000000000 ) ) ;
#124 = APPROVAL_DATE_TIME ( #41, #100 ) ;
#125 = EDGE_LOOP ( 'NONE', ( #61, #47 ) ) ;
#126 = VERTEX_POINT ( 'NONE', #157 ) ;
#127 = ORIENTED_EDGE ( 'NONE', *, *, #15, .T. ) ;
#128 = ORIENTED_EDGE ( 'NONE', *, *, #142, .F. ) ;
#129 = CALENDAR_DATE ( 2025, 20, 11 ) ;
#130 = CARTESIAN_POINT ( 'NONE',  ( 0.000000000000000000, 38.00000000000000000, 0.000000000000000000 ) ) ;
#131 = AXIS2_PLACEMENT_3D ( 'NONE', #216, #92, #252 ) ;
#132 = EDGE_CURVE ( 'NONE', #226, #224, #79, .T. ) ;
#133 = CARTESIAN_POINT ( 'NONE',  ( 0.000000000000000000, 0.000000000000000000, 0.000000000000000000 ) ) ;
#134 = PERSON_AND_ORGANIZATION_ROLE ( 'creator' ) ;
#135 = CARTESIAN_POINT ( 'NONE',  ( 0.000000000000000000, 0.000000000000000000, 0.000000000000000000 ) ) ;
#136 =( LENGTH_UNIT ( ) NAMED_UNIT ( * ) SI_UNIT ( .MILLI., .METRE. ) );
#137 =( GEOMETRIC_REPRESENTATION_CONTEXT ( 3 ) GLOBAL_UNCERTAINTY_ASSIGNED_CONTEXT ( ( #194 ) ) GLOBAL_UNIT_ASSIGNED_CONTEXT ( ( #136, #55, #177 ) ) REPRESENTATION_CONTEXT ( 'NONE', 'WORKASPACE' ) );
#138 = MANIFOLD_SOLID_BREP ( 'Sweep1', #19 ) ;
#139 = DIRECTION ( 'NONE',  ( 0.000000000000000000, 0.000000000000000000, 1.000000000000000000 ) ) ;
#140 = CC_DESIGN_PERSON_AND_ORGANIZATION_ASSIGNMENT ( #8, #91, ( #198 ) ) ;
#141 = PERSON_AND_ORGANIZATION ( #116, #57 ) ;
#142 = EDGE_CURVE ( 'NONE', #45, #126, #195, .T. ) ;
#143 = TOROIDAL_SURFACE ( 'NONE', #37, 38.00000000000000000, 20.46999999999999886 ) ;
#144 = ORIENTED_EDGE ( 'NONE', *, *, #89, .F. ) ;
#145 = EDGE_LOOP ( 'NONE', ( #144, #86, #208, #201 ) ) ;
#146 = AXIS2_PLACEMENT_3D ( 'NONE', #17, #169, #154 ) ;
#147 = DATE_AND_TIME ( #129, #213 ) ;
#148 = ORIENTED_EDGE ( 'NONE', *, *, #23, .F. ) ;
#149 = DIRECTION ( 'NONE',  ( 0.000000000000000000, 0.000000000000000000, 1.000000000000000000 ) ) ;
#150 = CARTESIAN_POINT ( 'NONE',  ( 0.000000000000000000, 0.000000000000000000, 0.000000000000000000 ) ) ;
#151 = AXIS2_PLACEMENT_3D ( 'NONE', #10, #99, #188 ) ;
#152 = APPROVAL_PERSON_ORGANIZATION ( #68, #155, #104 ) ;
#153 = PERSON_AND_ORGANIZATION ( #116, #57 ) ;
#154 = DIRECTION ( 'NONE',  ( 0.000000000000000000, 0.000000000000000000, -1.000000000000000000 ) ) ;
#155 = APPROVAL ( #88, 'UNSPECIFIED' ) ;
#156 = DIRECTION ( 'NONE',  ( 0.000000000000000000, 0.000000000000000000, 1.000000000000000000 ) ) ;
#157 = CARTESIAN_POINT ( 'NONE',  ( -58.46999999999999176, 3.580254917307286853E-15, 0.000000000000000000 ) ) ;
#158 = TOROIDAL_SURFACE ( 'NONE', #193, 38.00000000000000000, 20.46999999999999886 ) ;
#159 = CIRCLE ( 'NONE', #12, 20.46999999999999886 ) ;
#160 = ORIENTED_EDGE ( 'NONE', *, *, #225, .T. ) ;
#161 = VERTEX_POINT ( 'NONE', #248 ) ;
#162 = EDGE_CURVE ( 'NONE', #161, #226, #29, .T. ) ;
#163 = SECURITY_CLASSIFICATION_LEVEL ( 'unclassified' ) ;
#164 = CARTESIAN_POINT ( 'NONE',  ( -17.53000000000000114, 1.073402919452654891E-15, -2.506851997854632159E-15 ) ) ;
#165 = LOCAL_TIME ( 12, 5, 18.00000000000000000, #48 ) ;
#166 = ADVANCED_FACE ( 'NONE', ( #58, #173 ), #72, .F. ) ;
#167 = VERTEX_POINT ( 'NONE', #76 ) ;
#168 = APPROVAL_STATUS ( 'not_yet_approved' ) ;
#169 = DIRECTION ( 'NONE',  ( -6.123233995736766036E-17, -1.000000000000000000, -0.000000000000000000 ) ) ;
#170 = COORDINATED_UNIVERSAL_TIME_OFFSET ( 10, 0, .AHEAD. ) ;
#171 = FACE_OUTER_BOUND ( 'NONE', #207, .T. ) ;
#172 = CARTESIAN_POINT ( 'NONE',  ( -38.00000000000000000, 2.326828918379970970E-15, 0.000000000000000000 ) ) ;
#173 = FACE_OUTER_BOUND ( 'NONE', #125, .T. ) ;
#174 = FACE_OUTER_BOUND ( 'NONE', #183, .T. ) ;
#175 = AXIS2_PLACEMENT_3D ( 'NONE', #135, #156, #230 ) ;
#176 = SHAPE_DEFINITION_REPRESENTATION ( #251, #121 ) ;
#177 =( NAMED_UNIT ( * ) SI_UNIT ( $, .STERADIAN. ) SOLID_ANGLE_UNIT ( ) );
#178 = EDGE_CURVE ( 'NONE', #126, #45, #179, .T. ) ;
#179 = CIRCLE ( 'NONE', #146, 20.46999999999999886 ) ;
#180 = CC_DESIGN_PERSON_AND_ORGANIZATION_ASSIGNMENT ( #141, #218, ( #190 ) ) ;
#181 = ORIENTED_EDGE ( 'NONE', *, *, #162, .F. ) ;
#182 = CALENDAR_DATE ( 2025, 20, 11 ) ;
#183 = EDGE_LOOP ( 'NONE', ( #5, #239, #65, #181 ) ) ;
#184 = VERTEX_POINT ( 'NONE', #113 ) ;
#185 = DIRECTION ( 'NONE',  ( 1.000000000000000000, 0.000000000000000000, 0.000000000000000000 ) ) ;
#186 = CIRCLE ( 'NONE', #247, 17.53000000000000114 ) ;
#187 = CC_DESIGN_APPROVAL ( #155, ( #198 ) ) ;
#188 = DIRECTION ( 'NONE',  ( 0.000000000000000000, 0.000000000000000000, -1.000000000000000000 ) ) ;
#189 = CARTESIAN_POINT ( 'NONE',  ( 0.000000000000000000, 38.00000000000000000, 0.000000000000000000 ) ) ;
#190 = PRODUCT ( 'OEM-40-SR-40-316L_REV_', 'OEM-40-SR-40-316L_REV_', '', ( #83 ) ) ;
#191 = DIRECTION ( 'NONE',  ( -1.000000000000000000, -0.000000000000000000, -0.000000000000000000 ) ) ;
#192 = CC_DESIGN_PERSON_AND_ORGANIZATION_ASSIGNMENT ( #210, #227, ( #220 ) ) ;
#193 = AXIS2_PLACEMENT_3D ( 'NONE', #241, #7, #90 ) ;
#194 = UNCERTAINTY_MEASURE_WITH_UNIT (LENGTH_MEASURE( 1.000000000000000082E-05 ), #136, 'distance_accuracy_value', 'NONE');
#195 = CIRCLE ( 'NONE', #131, 20.46999999999999886 ) ;
#196 = APPROVAL_PERSON_ORGANIZATION ( #106, #250, #229 ) ;
#197 = CALENDAR_DATE ( 2025, 20, 11 ) ;
#198 = PRODUCT_DEFINITION ( 'UNKNOWN', '', #220, #60 ) ;
#199 = AXIS2_PLACEMENT_3D ( 'NONE', #246, #97, #117 ) ;
#200 = DIRECTION ( 'NONE',  ( 0.000000000000000000, 0.000000000000000000, 1.000000000000000000 ) ) ;
#201 = ORIENTED_EDGE ( 'NONE', *, *, #59, .F. ) ;
#202 = AXIS2_PLACEMENT_3D ( 'NONE', #43, #24, #107 ) ;
#203 = DIRECTION ( 'NONE',  ( 0.000000000000000000, 0.000000000000000000, -1.000000000000000000 ) ) ;
#204 = DATE_AND_TIME ( #54, #120 ) ;
#205 = DIRECTION ( 'NONE',  ( -1.000000000000000000, -0.000000000000000000, -0.000000000000000000 ) ) ;
#206 = DATE_AND_TIME ( #182, #82 ) ;
#207 = EDGE_LOOP ( 'NONE', ( #64, #237, #81, #21 ) ) ;
#208 = ORIENTED_EDGE ( 'NONE', *, *, #178, .T. ) ;
#209 = CARTESIAN_POINT ( 'NONE',  ( -38.00000000000000000, 2.326828918379970970E-15, 0.000000000000000000 ) ) ;
#210 = PERSON_AND_ORGANIZATION ( #116, #57 ) ;
#211 = DIRECTION ( 'NONE',  ( 1.000000000000000000, 0.000000000000000000, 0.000000000000000000 ) ) ;
#212 = AXIS2_PLACEMENT_3D ( 'NONE', #36, #191, #96 ) ;
#213 = LOCAL_TIME ( 12, 5, 18.00000000000000000, #242 ) ;
#214 = DIRECTION ( 'NONE',  ( 6.123233995736766036E-17, 1.000000000000000000, 0.000000000000000000 ) ) ;
#215 = EDGE_CURVE ( 'NONE', #102, #224, #95, .T. ) ;
#216 = CARTESIAN_POINT ( 'NONE',  ( -38.00000000000000000, 2.326828918379970970E-15, 0.000000000000000000 ) ) ;
#217 = AXIS2_PLACEMENT_3D ( 'NONE', #189, #211, #93 ) ;
#218 = PERSON_AND_ORGANIZATION_ROLE ( 'design_owner' ) ;
#219 = TOROIDAL_SURFACE ( 'NONE', #253, 38.00000000000000000, 24.14999999999999858 ) ;
#220 = PRODUCT_DEFINITION_FORMATION_WITH_SPECIFIED_SOURCE ( 'ANY', '', #190, .NOT_KNOWN. ) ;
#221 = ORIENTED_EDGE ( 'NONE', *, *, #122, .T. ) ;
#222 = ORIENTED_EDGE ( 'NONE', *, *, #15, .F. ) ;
#223 = AXIS2_PLACEMENT_3D ( 'NONE', #209, #214, #11 ) ;
#224 = VERTEX_POINT ( 'NONE', #31 ) ;
#225 = EDGE_CURVE ( 'NONE', #161, #102, #73, .T. ) ;
#226 = VERTEX_POINT ( 'NONE', #56 ) ;
#227 = PERSON_AND_ORGANIZATION_ROLE ( 'design_supplier' ) ;
#228 = DIRECTION ( 'NONE',  ( 1.000000000000000000, 0.000000000000000000, 0.000000000000000000 ) ) ;
#229 = APPROVAL_ROLE ( '' ) ;
#230 = DIRECTION ( 'NONE',  ( 1.000000000000000000, 0.000000000000000000, 0.000000000000000000 ) ) ;
#231 = CIRCLE ( 'NONE', #202, 24.14999999999999858 ) ;
#232 = LOCAL_TIME ( 12, 5, 18.00000000000000000, #63 ) ;
#233 = DIRECTION ( 'NONE',  ( 1.000000000000000000, 0.000000000000000000, 0.000000000000000000 ) ) ;
#234 = DIRECTION ( 'NONE',  ( 1.000000000000000000, 0.000000000000000000, 0.000000000000000000 ) ) ;
#235 = CC_DESIGN_PERSON_AND_ORGANIZATION_ASSIGNMENT ( #153, #134, ( #220 ) ) ;
#236 = ORIENTED_EDGE ( 'NONE', *, *, #142, .T. ) ;
#237 = ORIENTED_EDGE ( 'NONE', *, *, #225, .F. ) ;
#238 = PERSON_AND_ORGANIZATION ( #116, #57 ) ;
#239 = ORIENTED_EDGE ( 'NONE', *, *, #215, .T. ) ;
#240 = ADVANCED_FACE ( 'NONE', ( #171 ), #22, .T. ) ;
#241 = CARTESIAN_POINT ( 'NONE',  ( 0.000000000000000000, 0.000000000000000000, 0.000000000000000000 ) ) ;
#242 = COORDINATED_UNIVERSAL_TIME_OFFSET ( 10, 0, .AHEAD. ) ;
#243 = EDGE_LOOP ( 'NONE', ( #148, #222, #87, #236 ) ) ;
#244 = CARTESIAN_POINT ( 'NONE',  ( 0.000000000000000000, 0.000000000000000000, -2.957522019940857930E-15 ) ) ;
#245 = APPROVAL_DATE_TIME ( #85, #250 ) ;
#246 = CARTESIAN_POINT ( 'NONE',  ( 0.000000000000000000, 38.00000000000000000, 0.000000000000000000 ) ) ;
#247 = AXIS2_PLACEMENT_3D ( 'NONE', #70, #149, #228 ) ;
#248 = CARTESIAN_POINT ( 'NONE',  ( 0.000000000000000000, 13.85000000000000142, -2.957522019940857930E-15 ) ) ;
#249 = DIRECTION ( 'NONE',  ( 6.123233995736766036E-17, 1.000000000000000000, 0.000000000000000000 ) ) ;
#250 = APPROVAL ( #66, 'UNSPECIFIED' ) ;
#251 = PRODUCT_DEFINITION_SHAPE ( 'NONE', 'NONE',  #198 ) ;
#252 = DIRECTION ( 'NONE',  ( 0.000000000000000000, 0.000000000000000000, -1.000000000000000000 ) ) ;
#253 = AXIS2_PLACEMENT_3D ( 'NONE', #150, #9, #53 ) ;
ENDSEC;
END-ISO-10303-21;
