ISO-10303-21;
HEADER;
FILE_DESCRIPTION (( 'STEP AP203' ),
    '1' );
FILE_NAME ('OEM-50-LR-40-316L_REV_.step',
    '2025-11-20T01:04:15',
    ( '' ),
    ( '' ),
    'SwSTEP 2.0',
    'SolidWorks 2025',
    '' );
FILE_SCHEMA (( 'CONFIG_CONTROL_DESIGN' ));
ENDSEC;

DATA;
#1 = ORIENTED_EDGE ( 'NONE', *, *, #165, .F. ) ;
#2 = ORIENTED_EDGE ( 'NONE', *, *, #42, .T. ) ;
#3 = AXIS2_PLACEMENT_3D ( 'NONE', #169, #130, #243 ) ;
#4 = CC_DESIGN_PERSON_AND_ORGANIZATION_ASSIGNMENT ( #203, #62, ( #11 ) ) ;
#5 = DIRECTION ( 'NONE',  ( 0.000000000000000000, 0.000000000000000000, -1.000000000000000000 ) ) ;
#6 = DIRECTION ( 'NONE',  ( 0.000000000000000000, 0.000000000000000000, -1.000000000000000000 ) ) ;
#7 = DIRECTION ( 'NONE',  ( 0.000000000000000000, 0.000000000000000000, 1.000000000000000000 ) ) ;
#8 = ORIENTED_EDGE ( 'NONE', *, *, #102, .T. ) ;
#9 = DIRECTION ( 'NONE',  ( 0.000000000000000000, 0.000000000000000000, 1.000000000000000000 ) ) ;
#10 = APPROVAL ( #78, 'UNSPECIFIED' ) ;
#11 = PRODUCT ( 'OEM-50-LR-40-316L_REV_', 'OEM-50-LR-40-316L_REV_', '', ( #14 ) ) ;
#12 = LOCAL_TIME ( 12, 4, 15.00000000000000000, #152 ) ;
#13 = ORIENTED_EDGE ( 'NONE', *, *, #138, .F. ) ;
#14 = MECHANICAL_CONTEXT ( 'NONE', #223, 'mechanical' ) ;
#15 = DIRECTION ( 'NONE',  ( -3.613946018757868503E-15, -1.000000000000000000, -0.000000000000000000 ) ) ;
#16 = APPROVAL_ROLE ( '' ) ;
#17 = APPLICATION_PROTOCOL_DEFINITION ( 'international standard', 'config_control_design', 1994, #99 ) ;
#18 = SECURITY_CLASSIFICATION ( '', '', #76 ) ;
#19 = APPROVAL_DATE_TIME ( #95, #108 ) ;
#20 = APPROVAL_STATUS ( 'not_yet_approved' ) ;
#21 = COORDINATED_UNIVERSAL_TIME_OFFSET ( 10, 0, .AHEAD. ) ;
#22 = ORIENTED_EDGE ( 'NONE', *, *, #233, .F. ) ;
#23 = CC_DESIGN_APPROVAL ( #80, ( #121 ) ) ;
#24 = UNCERTAINTY_MEASURE_WITH_UNIT (LENGTH_MEASURE( 1.000000000000000082E-05 ), #179, 'distance_accuracy_value', 'NONE');
#25 = DIRECTION ( 'NONE',  ( 1.000000000000000000, 0.000000000000000000, 0.000000000000000000 ) ) ;
#26 = DIRECTION ( 'NONE',  ( 1.000000000000000000, 0.000000000000000000, 0.000000000000000000 ) ) ;
#27 = CIRCLE ( 'NONE', #135, 49.95000000000000284 ) ;
#28 = FACE_BOUND ( 'NONE', #43, .T. ) ;
#29 = VERTEX_POINT ( 'NONE', #141 ) ;
#30 = ORIENTED_EDGE ( 'NONE', *, *, #239, .F. ) ;
#31 = DIRECTION ( 'NONE',  ( 1.000000000000000000, 0.000000000000000000, 0.000000000000000000 ) ) ;
#32 = AXIS2_PLACEMENT_3D ( 'NONE', #50, #149, #53 ) ;
#33 = CARTESIAN_POINT ( 'NONE',  ( 0.000000000000000000, 76.20000000000000284, 0.000000000000000000 ) ) ;
#34 = CARTESIAN_POINT ( 'NONE',  ( -76.20000000000000284, 2.753826866293496128E-13, 0.000000000000000000 ) ) ;
#35 = CALENDAR_DATE ( 2025, 20, 11 ) ;
#36 = DATE_TIME_ROLE ( 'creation_date' ) ;
#37 = APPROVAL_DATE_TIME ( #230, #10 ) ;
#38 = CIRCLE ( 'NONE', #181, 46.04999999999999716 ) ;
#39 = PERSON_AND_ORGANIZATION ( #66, #117 ) ;
#40 = ORIENTED_EDGE ( 'NONE', *, *, #133, .T. ) ;
#41 = APPROVAL_PERSON_ORGANIZATION ( #118, #80, #229 ) ;
#42 = EDGE_CURVE ( 'NONE', #182, #68, #38, .T. ) ;
#43 = EDGE_LOOP ( 'NONE', ( #192, #103 ) ) ;
#44 = ORIENTED_EDGE ( 'NONE', *, *, #191, .F. ) ;
#45 = ADVANCED_BREP_SHAPE_REPRESENTATION ( 'OEM-50-LR-40-316L_REV_', ( #212, #131 ), #97 ) ;
#46 = CIRCLE ( 'NONE', #146, 30.15000000000000568 ) ;
#47 = CC_DESIGN_PERSON_AND_ORGANIZATION_ASSIGNMENT ( #39, #116, ( #248 ) ) ;
#48 = EDGE_LOOP ( 'NONE', ( #13, #22 ) ) ;
#49 = CARTESIAN_POINT ( 'NONE',  ( 0.000000000000000000, 0.000000000000000000, 0.000000000000000000 ) ) ;
#50 = CARTESIAN_POINT ( 'NONE',  ( 0.000000000000000000, 0.000000000000000000, 0.000000000000000000 ) ) ;
#51 = AXIS2_PLACEMENT_3D ( 'NONE', #222, #7, #26 ) ;
#52 = DIRECTION ( 'NONE',  ( 0.000000000000000000, 0.000000000000000000, -1.000000000000000000 ) ) ;
#53 = DIRECTION ( 'NONE',  ( 1.000000000000000000, 0.000000000000000000, 0.000000000000000000 ) ) ;
#54 = CARTESIAN_POINT ( 'NONE',  ( -76.20000000000000284, 2.753826866293496128E-13, 0.000000000000000000 ) ) ;
#55 = CARTESIAN_POINT ( 'NONE',  ( 0.000000000000000000, 76.20000000000000284, 0.000000000000000000 ) ) ;
#56 = AXIS2_PLACEMENT_3D ( 'NONE', #49, #120, #25 ) ;
#57 = DIRECTION ( 'NONE',  ( 1.000000000000000000, 0.000000000000000000, 0.000000000000000000 ) ) ;
#58 = EDGE_CURVE ( 'NONE', #242, #182, #46, .T. ) ;
#59 = DATE_AND_TIME ( #154, #156 ) ;
#60 = ADVANCED_FACE ( 'NONE', ( #28, #109 ), #69, .T. ) ;
#61 = DATE_AND_TIME ( #96, #12 ) ;
#62 = PERSON_AND_ORGANIZATION_ROLE ( 'design_owner' ) ;
#63 = ORIENTED_EDGE ( 'NONE', *, *, #191, .T. ) ;
#64 = TOROIDAL_SURFACE ( 'NONE', #51, 76.20000000000000284, 30.15000000000000568 ) ;
#65 = CIRCLE ( 'NONE', #161, 26.25000000000000355 ) ;
#66 = PERSON ( 'UNSPECIFIED', 'UNSPECIFIED', 'UNSPECIFIED', ('UNSPECIFIED'), ('UNSPECIFIED'), ('UNSPECIFIED') ) ;
#67 = DIRECTION ( 'NONE',  ( 0.000000000000000000, 0.000000000000000000, 1.000000000000000000 ) ) ;
#68 = VERTEX_POINT ( 'NONE', #219 ) ;
#69 = PLANE ( 'NONE',  #77 ) ;
#70 =( NAMED_UNIT ( * ) SI_UNIT ( $, .STERADIAN. ) SOLID_ANGLE_UNIT ( ) );
#71 = ORIENTED_EDGE ( 'NONE', *, *, #133, .F. ) ;
#72 = CARTESIAN_POINT ( 'NONE',  ( -106.3500000000000085, 3.843431590948993601E-13, 0.000000000000000000 ) ) ;
#73 = LOCAL_TIME ( 12, 4, 15.00000000000000000, #185 ) ;
#74 = PERSON_AND_ORGANIZATION_ROLE ( 'creator' ) ;
#75 = ADVANCED_FACE ( 'NONE', ( #221, #90 ), #86, .F. ) ;
#76 = SECURITY_CLASSIFICATION_LEVEL ( 'unclassified' ) ;
#77 = AXIS2_PLACEMENT_3D ( 'NONE', #225, #147, #6 ) ;
#78 = APPROVAL_STATUS ( 'not_yet_approved' ) ;
#79 = EDGE_LOOP ( 'NONE', ( #231, #162, #143, #44 ) ) ;
#80 = APPROVAL ( #20, 'UNSPECIFIED' ) ;
#81 = AXIS2_PLACEMENT_3D ( 'NONE', #54, #164, #215 ) ;
#82 = DESIGN_CONTEXT ( 'detailed design', #99, 'design' ) ;
#83 = TOROIDAL_SURFACE ( 'NONE', #32, 76.20000000000000284, 26.25000000000000355 ) ;
#84 = CARTESIAN_POINT ( 'NONE',  ( -76.20000000000000284, 2.753826866293496128E-13, 0.000000000000000000 ) ) ;
#85 = DIRECTION ( 'NONE',  ( 0.000000000000000000, 0.000000000000000000, -1.000000000000000000 ) ) ;
#86 = PLANE ( 'NONE',  #81 ) ;
#87 = DIRECTION ( 'NONE',  ( 1.000000000000000000, 0.000000000000000000, 0.000000000000000000 ) ) ;
#88 = ORIENTED_EDGE ( 'NONE', *, *, #239, .T. ) ;
#89 = DIRECTION ( 'NONE',  ( -3.613946018757868503E-15, -1.000000000000000000, -0.000000000000000000 ) ) ;
#90 = FACE_OUTER_BOUND ( 'NONE', #48, .T. ) ;
#91 = FACE_OUTER_BOUND ( 'NONE', #79, .T. ) ;
#92 = CARTESIAN_POINT ( 'NONE',  ( -76.20000000000000284, 2.753826866293496128E-13, 0.000000000000000000 ) ) ;
#93 = SHAPE_DEFINITION_REPRESENTATION ( #224, #45 ) ;
#94 = LOCAL_TIME ( 12, 4, 15.00000000000000000, #21 ) ;
#95 = DATE_AND_TIME ( #187, #218 ) ;
#96 = CALENDAR_DATE ( 2025, 20, 11 ) ;
#97 =( GEOMETRIC_REPRESENTATION_CONTEXT ( 3 ) GLOBAL_UNCERTAINTY_ASSIGNED_CONTEXT ( ( #24 ) ) GLOBAL_UNIT_ASSIGNED_CONTEXT ( ( #179, #180, #70 ) ) REPRESENTATION_CONTEXT ( 'NONE', 'WORKASPACE' ) );
#98 = EDGE_CURVE ( 'NONE', #29, #199, #150, .T. ) ;
#99 = APPLICATION_CONTEXT ( 'configuration controlled 3d designs of mechanical parts and assemblies' ) ;
#100 = VERTEX_POINT ( 'NONE', #194 ) ;
#101 = AXIS2_PLACEMENT_3D ( 'NONE', #115, #163, #244 ) ;
#102 = EDGE_CURVE ( 'NONE', #242, #211, #139, .T. ) ;
#103 = ORIENTED_EDGE ( 'NONE', *, *, #183, .T. ) ;
#104 = DIRECTION ( 'NONE',  ( -1.000000000000000000, -0.000000000000000000, -0.000000000000000000 ) ) ;
#105 = FACE_OUTER_BOUND ( 'NONE', #178, .T. ) ;
#106 = CIRCLE ( 'NONE', #140, 30.15000000000000568 ) ;
#107 = TOROIDAL_SURFACE ( 'NONE', #210, 76.20000000000000284, 30.15000000000000568 ) ;
#108 = APPROVAL ( #134, 'UNSPECIFIED' ) ;
#109 = FACE_OUTER_BOUND ( 'NONE', #127, .T. ) ;
#110 = FACE_OUTER_BOUND ( 'NONE', #125, .T. ) ;
#111 = ORIENTED_EDGE ( 'NONE', *, *, #233, .T. ) ;
#112 = CARTESIAN_POINT ( 'NONE',  ( -76.20000000000000284, 2.753826866293496128E-13, 0.000000000000000000 ) ) ;
#113 = DIRECTION ( 'NONE',  ( 0.000000000000000000, 0.000000000000000000, -1.000000000000000000 ) ) ;
#114 = CC_DESIGN_DATE_AND_TIME_ASSIGNMENT ( #61, #36, ( #121 ) ) ;
#115 = CARTESIAN_POINT ( 'NONE',  ( 0.000000000000000000, 0.000000000000000000, 0.000000000000000000 ) ) ;
#116 = PERSON_AND_ORGANIZATION_ROLE ( 'design_supplier' ) ;
#117 = ORGANIZATION ( 'UNSPECIFIED', 'UNSPECIFIED', '' ) ;
#118 = PERSON_AND_ORGANIZATION ( #66, #117 ) ;
#119 = PERSON_AND_ORGANIZATION ( #66, #117 ) ;
#120 = DIRECTION ( 'NONE',  ( 0.000000000000000000, 0.000000000000000000, 1.000000000000000000 ) ) ;
#121 = PRODUCT_DEFINITION ( 'UNKNOWN', '', #248, #82 ) ;
#122 = DIRECTION ( 'NONE',  ( 3.613946018757868503E-15, 1.000000000000000000, 0.000000000000000000 ) ) ;
#123 = DIRECTION ( 'NONE',  ( 0.000000000000000000, 0.000000000000000000, 1.000000000000000000 ) ) ;
#124 = CC_DESIGN_APPROVAL ( #10, ( #248 ) ) ;
#125 = EDGE_LOOP ( 'NONE', ( #145, #160, #63, #88 ) ) ;
#126 = CARTESIAN_POINT ( 'NONE',  ( 0.000000000000000000, 0.000000000000000000, 0.000000000000000000 ) ) ;
#127 = EDGE_LOOP ( 'NONE', ( #40, #158 ) ) ;
#128 = DIRECTION ( 'NONE',  ( 0.000000000000000000, 0.000000000000000000, 1.000000000000000000 ) ) ;
#129 = EDGE_CURVE ( 'NONE', #155, #29, #214, .T. ) ;
#130 = DIRECTION ( 'NONE',  ( 0.000000000000000000, 0.000000000000000000, 1.000000000000000000 ) ) ;
#131 = AXIS2_PLACEMENT_3D ( 'NONE', #201, #128, #31 ) ;
#132 = PERSON_AND_ORGANIZATION ( #66, #117 ) ;
#133 = EDGE_CURVE ( 'NONE', #182, #242, #252, .T. ) ;
#134 = APPROVAL_STATUS ( 'not_yet_approved' ) ;
#135 = AXIS2_PLACEMENT_3D ( 'NONE', #238, #123, #87 ) ;
#136 = PERSON_AND_ORGANIZATION ( #66, #117 ) ;
#137 = PERSON_AND_ORGANIZATION ( #66, #117 ) ;
#138 = EDGE_CURVE ( 'NONE', #68, #211, #106, .T. ) ;
#139 = CIRCLE ( 'NONE', #56, 106.3500000000000085 ) ;
#140 = AXIS2_PLACEMENT_3D ( 'NONE', #84, #122, #197 ) ;
#141 = CARTESIAN_POINT ( 'NONE',  ( 0.000000000000000000, 102.4500000000000171, 0.000000000000000000 ) ) ;
#142 = ADVANCED_FACE ( 'NONE', ( #91 ), #83, .F. ) ;
#143 = ORIENTED_EDGE ( 'NONE', *, *, #165, .T. ) ;
#144 = DIRECTION ( 'NONE',  ( 3.613946018757868503E-15, 1.000000000000000000, 0.000000000000000000 ) ) ;
#145 = ORIENTED_EDGE ( 'NONE', *, *, #98, .F. ) ;
#146 = AXIS2_PLACEMENT_3D ( 'NONE', #240, #148, #166 ) ;
#147 = DIRECTION ( 'NONE',  ( 1.000000000000000000, 0.000000000000000000, 0.000000000000000000 ) ) ;
#148 = DIRECTION ( 'NONE',  ( 1.000000000000000000, 0.000000000000000000, 0.000000000000000000 ) ) ;
#149 = DIRECTION ( 'NONE',  ( 0.000000000000000000, 0.000000000000000000, 1.000000000000000000 ) ) ;
#150 = CIRCLE ( 'NONE', #3, 102.4500000000000171 ) ;
#151 = ADVANCED_FACE ( 'NONE', ( #105 ), #64, .T. ) ;
#152 = COORDINATED_UNIVERSAL_TIME_OFFSET ( 10, 0, .AHEAD. ) ;
#153 = APPROVAL_ROLE ( '' ) ;
#154 = CALENDAR_DATE ( 2025, 20, 11 ) ;
#155 = VERTEX_POINT ( 'NONE', #195 ) ;
#156 = LOCAL_TIME ( 12, 4, 15.00000000000000000, #249 ) ;
#157 = CC_DESIGN_PERSON_AND_ORGANIZATION_ASSIGNMENT ( #132, #74, ( #121 ) ) ;
#158 = ORIENTED_EDGE ( 'NONE', *, *, #58, .T. ) ;
#159 = PRODUCT_RELATED_PRODUCT_CATEGORY ( 'detail', '', ( #11 ) ) ;
#160 = ORIENTED_EDGE ( 'NONE', *, *, #129, .F. ) ;
#161 = AXIS2_PLACEMENT_3D ( 'NONE', #112, #89, #85 ) ;
#162 = ORIENTED_EDGE ( 'NONE', *, *, #98, .T. ) ;
#163 = DIRECTION ( 'NONE',  ( 0.000000000000000000, 0.000000000000000000, 1.000000000000000000 ) ) ;
#164 = DIRECTION ( 'NONE',  ( 3.613946018757868503E-15, 1.000000000000000000, 0.000000000000000000 ) ) ;
#165 = EDGE_CURVE ( 'NONE', #199, #100, #227, .T. ) ;
#166 = DIRECTION ( 'NONE',  ( 0.000000000000000000, 0.000000000000000000, -1.000000000000000000 ) ) ;
#167 = APPLICATION_PROTOCOL_DEFINITION ( 'international standard', 'config_control_design', 1994, #223 ) ;
#168 = CC_DESIGN_SECURITY_CLASSIFICATION ( #18, ( #248 ) ) ;
#169 = CARTESIAN_POINT ( 'NONE',  ( 0.000000000000000000, 0.000000000000000000, 0.000000000000000000 ) ) ;
#170 = DIRECTION ( 'NONE',  ( 0.000000000000000000, 0.000000000000000000, -1.000000000000000000 ) ) ;
#171 = AXIS2_PLACEMENT_3D ( 'NONE', #34, #144, #217 ) ;
#172 = CC_DESIGN_DATE_AND_TIME_ASSIGNMENT ( #59, #204, ( #18 ) ) ;
#173 = AXIS2_PLACEMENT_3D ( 'NONE', #92, #15, #113 ) ;
#174 = EDGE_LOOP ( 'NONE', ( #30, #1 ) ) ;
#175 = DIRECTION ( 'NONE',  ( 1.000000000000000000, 0.000000000000000000, 0.000000000000000000 ) ) ;
#176 = CARTESIAN_POINT ( 'NONE',  ( 0.000000000000000000, 46.04999999999999716, -3.692310099429270397E-15 ) ) ;
#177 = CIRCLE ( 'NONE', #235, 26.25000000000000355 ) ;
#178 = EDGE_LOOP ( 'NONE', ( #234, #8, #111, #208 ) ) ;
#179 =( LENGTH_UNIT ( ) NAMED_UNIT ( * ) SI_UNIT ( .MILLI., .METRE. ) );
#180 =( NAMED_UNIT ( * ) PLANE_ANGLE_UNIT ( ) SI_UNIT ( $, .RADIAN. ) );
#181 = AXIS2_PLACEMENT_3D ( 'NONE', #236, #67, #216 ) ;
#182 = VERTEX_POINT ( 'NONE', #176 ) ;
#183 = EDGE_CURVE ( 'NONE', #29, #155, #177, .T. ) ;
#184 = DATE_AND_TIME ( #246, #73 ) ;
#185 = COORDINATED_UNIVERSAL_TIME_OFFSET ( 10, 0, .AHEAD. ) ;
#186 = APPROVAL_PERSON_ORGANIZATION ( #119, #108, #16 ) ;
#187 = CALENDAR_DATE ( 2025, 20, 11 ) ;
#188 = ADVANCED_FACE ( 'NONE', ( #110 ), #247, .F. ) ;
#189 = AXIS2_PLACEMENT_3D ( 'NONE', #198, #175, #5 ) ;
#190 = ORIENTED_EDGE ( 'NONE', *, *, #102, .F. ) ;
#191 = EDGE_CURVE ( 'NONE', #155, #100, #27, .T. ) ;
#192 = ORIENTED_EDGE ( 'NONE', *, *, #129, .T. ) ;
#193 = EDGE_LOOP ( 'NONE', ( #190, #71, #2, #237 ) ) ;
#194 = CARTESIAN_POINT ( 'NONE',  ( -49.95000000000000284, 1.805166036369555614E-13, -3.214697847761802372E-15 ) ) ;
#195 = CARTESIAN_POINT ( 'NONE',  ( 0.000000000000000000, 49.95000000000000284, -3.214697847761802372E-15 ) ) ;
#196 = APPROVAL_PERSON_ORGANIZATION ( #136, #10, #153 ) ;
#197 = DIRECTION ( 'NONE',  ( 0.000000000000000000, 0.000000000000000000, -1.000000000000000000 ) ) ;
#198 = CARTESIAN_POINT ( 'NONE',  ( 0.000000000000000000, 76.20000000000000284, 0.000000000000000000 ) ) ;
#199 = VERTEX_POINT ( 'NONE', #245 ) ;
#200 = FACE_OUTER_BOUND ( 'NONE', #193, .T. ) ;
#201 = CARTESIAN_POINT ( 'NONE',  ( 0.000000000000000000, 0.000000000000000000, 0.000000000000000000 ) ) ;
#202 = PERSON_AND_ORGANIZATION_ROLE ( 'creator' ) ;
#203 = PERSON_AND_ORGANIZATION ( #66, #117 ) ;
#204 = DATE_TIME_ROLE ( 'classification_date' ) ;
#205 = CLOSED_SHELL ( 'NONE', ( #142, #151, #188, #75, #60, #209 ) ) ;
#206 = COORDINATED_UNIVERSAL_TIME_OFFSET ( 10, 0, .AHEAD. ) ;
#207 = APPROVAL_DATE_TIME ( #184, #80 ) ;
#208 = ORIENTED_EDGE ( 'NONE', *, *, #42, .F. ) ;
#209 = ADVANCED_FACE ( 'NONE', ( #200 ), #107, .T. ) ;
#210 = AXIS2_PLACEMENT_3D ( 'NONE', #126, #9, #57 ) ;
#211 = VERTEX_POINT ( 'NONE', #72 ) ;
#212 = MANIFOLD_SOLID_BREP ( 'Sweep1', #205 ) ;
#213 = CC_DESIGN_PERSON_AND_ORGANIZATION_ASSIGNMENT ( #137, #228, ( #18 ) ) ;
#214 = CIRCLE ( 'NONE', #241, 26.25000000000000355 ) ;
#215 = DIRECTION ( 'NONE',  ( 0.000000000000000000, 0.000000000000000000, -1.000000000000000000 ) ) ;
#216 = DIRECTION ( 'NONE',  ( 1.000000000000000000, 0.000000000000000000, 0.000000000000000000 ) ) ;
#217 = DIRECTION ( 'NONE',  ( 0.000000000000000000, 0.000000000000000000, -1.000000000000000000 ) ) ;
#218 = LOCAL_TIME ( 12, 4, 15.00000000000000000, #206 ) ;
#219 = CARTESIAN_POINT ( 'NONE',  ( -46.04999999999999716, 1.664222141637998402E-13, -3.692310099429270397E-15 ) ) ;
#220 = DIRECTION ( 'NONE',  ( -1.000000000000000000, -0.000000000000000000, -0.000000000000000000 ) ) ;
#221 = FACE_BOUND ( 'NONE', #174, .T. ) ;
#222 = CARTESIAN_POINT ( 'NONE',  ( 0.000000000000000000, 0.000000000000000000, 0.000000000000000000 ) ) ;
#223 = APPLICATION_CONTEXT ( 'configuration controlled 3d designs of mechanical parts and assemblies' ) ;
#224 = PRODUCT_DEFINITION_SHAPE ( 'NONE', 'NONE',  #121 ) ;
#225 = CARTESIAN_POINT ( 'NONE',  ( 0.000000000000000000, 76.20000000000000284, 0.000000000000000000 ) ) ;
#226 = CARTESIAN_POINT ( 'NONE',  ( 0.000000000000000000, 106.3500000000000085, 0.000000000000000000 ) ) ;
#227 = CIRCLE ( 'NONE', #173, 26.25000000000000355 ) ;
#228 = PERSON_AND_ORGANIZATION_ROLE ( 'classification_officer' ) ;
#229 = APPROVAL_ROLE ( '' ) ;
#230 = DATE_AND_TIME ( #35, #94 ) ;
#231 = ORIENTED_EDGE ( 'NONE', *, *, #183, .F. ) ;
#232 = CIRCLE ( 'NONE', #171, 30.15000000000000568 ) ;
#233 = EDGE_CURVE ( 'NONE', #211, #68, #232, .T. ) ;
#234 = ORIENTED_EDGE ( 'NONE', *, *, #58, .F. ) ;
#235 = AXIS2_PLACEMENT_3D ( 'NONE', #55, #220, #170 ) ;
#236 = CARTESIAN_POINT ( 'NONE',  ( 0.000000000000000000, 0.000000000000000000, -3.692310099429271186E-15 ) ) ;
#237 = ORIENTED_EDGE ( 'NONE', *, *, #138, .T. ) ;
#238 = CARTESIAN_POINT ( 'NONE',  ( 0.000000000000000000, 0.000000000000000000, -3.214697847761802372E-15 ) ) ;
#239 = EDGE_CURVE ( 'NONE', #100, #199, #65, .T. ) ;
#240 = CARTESIAN_POINT ( 'NONE',  ( 0.000000000000000000, 76.20000000000000284, 0.000000000000000000 ) ) ;
#241 = AXIS2_PLACEMENT_3D ( 'NONE', #33, #104, #52 ) ;
#242 = VERTEX_POINT ( 'NONE', #226 ) ;
#243 = DIRECTION ( 'NONE',  ( 1.000000000000000000, 0.000000000000000000, 0.000000000000000000 ) ) ;
#244 = DIRECTION ( 'NONE',  ( 1.000000000000000000, 0.000000000000000000, 0.000000000000000000 ) ) ;
#245 = CARTESIAN_POINT ( 'NONE',  ( -102.4500000000000171, 3.702487696217436137E-13, 0.000000000000000000 ) ) ;
#246 = CALENDAR_DATE ( 2025, 20, 11 ) ;
#247 = TOROIDAL_SURFACE ( 'NONE', #101, 76.20000000000000284, 26.25000000000000355 ) ;
#248 = PRODUCT_DEFINITION_FORMATION_WITH_SPECIFIED_SOURCE ( 'ANY', '', #11, .NOT_KNOWN. ) ;
#249 = COORDINATED_UNIVERSAL_TIME_OFFSET ( 10, 0, .AHEAD. ) ;
#250 = CC_DESIGN_PERSON_AND_ORGANIZATION_ASSIGNMENT ( #251, #202, ( #248 ) ) ;
#251 = PERSON_AND_ORGANIZATION ( #66, #117 ) ;
#252 = CIRCLE ( 'NONE', #189, 30.15000000000000568 ) ;
#253 = CC_DESIGN_APPROVAL ( #108, ( #18 ) ) ;
ENDSEC;
END-ISO-10303-21;
