ISO-10303-21;
HEADER;
FILE_DESCRIPTION (( 'STEP AP203' ),
    '1' );
FILE_NAME ('OEM-50-LRX25-40-316L_REV_.step',
    '2025-11-20T01:00:37',
    ( '' ),
    ( '' ),
    'SwSTEP 2.0',
    'SolidWorks 2025',
    '' );
FILE_SCHEMA (( 'CONFIG_CONTROL_DESIGN' ));
ENDSEC;

DATA;
#1 = DIRECTION ( 'NONE',  ( 0.000000000000000000, 0.000000000000000000, 1.000000000000000000 ) ) ;
#2 = DIRECTION ( 'NONE',  ( 1.000000000000000000, 0.000000000000000000, 0.000000000000000000 ) ) ;
#3 = EDGE_CURVE ( 'NONE', #166, #186, #185, .T. ) ;
#4 = CALENDAR_DATE ( 2025, 20, 11 ) ;
#5 = CIRCLE ( 'NONE', #233, 49.95000000000000284 ) ;
#6 = ORIENTED_EDGE ( 'NONE', *, *, #3, .F. ) ;
#7 = ORIENTED_EDGE ( 'NONE', *, *, #3, .T. ) ;
#8 = VERTEX_POINT ( 'NONE', #128 ) ;
#9 = PERSON_AND_ORGANIZATION ( #121, #18 ) ;
#10 = EDGE_CURVE ( 'NONE', #228, #8, #29, .T. ) ;
#11 = CARTESIAN_POINT ( 'NONE',  ( 0.000000000000000000, 102.4500000000000171, 0.000000000000000000 ) ) ;
#12 = SECURITY_CLASSIFICATION_LEVEL ( 'unclassified' ) ;
#13 = CIRCLE ( 'NONE', #26, 30.15000000000000568 ) ;
#14 = DIRECTION ( 'NONE',  ( 0.000000000000000000, 0.000000000000000000, -1.000000000000000000 ) ) ;
#15 = ORIENTED_EDGE ( 'NONE', *, *, #28, .F. ) ;
#16 = CC_DESIGN_DATE_AND_TIME_ASSIGNMENT ( #72, #116, ( #217 ) ) ;
#17 = FACE_BOUND ( 'NONE', #111, .T. ) ;
#18 = ORGANIZATION ( 'UNSPECIFIED', 'UNSPECIFIED', '' ) ;
#19 = FACE_OUTER_BOUND ( 'NONE', #138, .T. ) ;
#20 = DIRECTION ( 'NONE',  ( 0.000000000000000000, 0.000000000000000000, 1.000000000000000000 ) ) ;
#21 =( LENGTH_UNIT ( ) NAMED_UNIT ( * ) SI_UNIT ( .MILLI., .METRE. ) );
#22 = EDGE_CURVE ( 'NONE', #186, #166, #213, .T. ) ;
#23 = APPLICATION_PROTOCOL_DEFINITION ( 'international standard', 'config_control_design', 1994, #247 ) ;
#24 = PERSON_AND_ORGANIZATION_ROLE ( 'design_owner' ) ;
#25 = DATE_AND_TIME ( #223, #119 ) ;
#26 = AXIS2_PLACEMENT_3D ( 'NONE', #145, #108, #184 ) ;
#27 = EDGE_LOOP ( 'NONE', ( #215, #219 ) ) ;
#28 = EDGE_CURVE ( 'NONE', #180, #207, #13, .T. ) ;
#29 = CIRCLE ( 'NONE', #167, 26.25000000000000355 ) ;
#30 = CC_DESIGN_PERSON_AND_ORGANIZATION_ASSIGNMENT ( #214, #24, ( #50 ) ) ;
#31 = ORIENTED_EDGE ( 'NONE', *, *, #152, .F. ) ;
#32 = COORDINATED_UNIVERSAL_TIME_OFFSET ( 10, 0, .AHEAD. ) ;
#33 = DIRECTION ( 'NONE',  ( 0.9063077870366527122, 0.4226182617406937791, 0.000000000000000000 ) ) ;
#34 = APPROVAL_PERSON_ORGANIZATION ( #176, #218, #133 ) ;
#35 = DIRECTION ( 'NONE',  ( 1.000000000000000000, 0.000000000000000000, 0.000000000000000000 ) ) ;
#36 = CC_DESIGN_PERSON_AND_ORGANIZATION_ASSIGNMENT ( #9, #199, ( #210 ) ) ;
#37 = FACE_OUTER_BOUND ( 'NONE', #122, .T. ) ;
#38 = CARTESIAN_POINT ( 'NONE',  ( 0.000000000000000000, 0.000000000000000000, 0.000000000000000000 ) ) ;
#39 = CC_DESIGN_APPROVAL ( #191, ( #140 ) ) ;
#40 = CALENDAR_DATE ( 2025, 20, 11 ) ;
#41 = FACE_OUTER_BOUND ( 'NONE', #177, .T. ) ;
#42 =( NAMED_UNIT ( * ) PLANE_ANGLE_UNIT ( ) SI_UNIT ( $, .RADIAN. ) );
#43 = DIRECTION ( 'NONE',  ( 0.000000000000000000, 0.000000000000000000, 1.000000000000000000 ) ) ;
#44 = ORIENTED_EDGE ( 'NONE', *, *, #204, .F. ) ;
#45 = AXIS2_PLACEMENT_3D ( 'NONE', #162, #141, #183 ) ;
#46 = ORIENTED_EDGE ( 'NONE', *, *, #81, .F. ) ;
#47 = CALENDAR_DATE ( 2025, 20, 11 ) ;
#48 = AXIS2_PLACEMENT_3D ( 'NONE', #229, #225, #252 ) ;
#49 = DATE_AND_TIME ( #120, #237 ) ;
#50 = PRODUCT ( 'OEM-50-LRX25-40-316L_REV_', 'OEM-50-LRX25-40-316L_REV_', '', ( #236 ) ) ;
#51 = ORIENTED_EDGE ( 'NONE', *, *, #10, .T. ) ;
#52 = DIRECTION ( 'NONE',  ( 0.000000000000000000, 0.000000000000000000, -1.000000000000000000 ) ) ;
#53 = EDGE_LOOP ( 'NONE', ( #104, #249 ) ) ;
#54 = AXIS2_PLACEMENT_3D ( 'NONE', #56, #129, #102 ) ;
#55 = CARTESIAN_POINT ( 'NONE',  ( -32.20351154464086108, 69.06065337219293099, 0.000000000000000000 ) ) ;
#56 = CARTESIAN_POINT ( 'NONE',  ( 0.000000000000000000, 0.000000000000000000, 0.000000000000000000 ) ) ;
#57 = APPROVAL_ROLE ( '' ) ;
#58 = ADVANCED_FACE ( 'NONE', ( #37 ), #182, .T. ) ;
#59 = TOROIDAL_SURFACE ( 'NONE', #198, 76.20000000000000284, 26.25000000000000355 ) ;
#60 = CARTESIAN_POINT ( 'NONE',  ( 0.000000000000000000, 76.20000000000000284, 0.000000000000000000 ) ) ;
#61 = FACE_OUTER_BOUND ( 'NONE', #156, .T. ) ;
#62 = CARTESIAN_POINT ( 'NONE',  ( 0.000000000000000000, 0.000000000000000000, 0.000000000000000000 ) ) ;
#63 = AXIS2_PLACEMENT_3D ( 'NONE', #168, #71, #14 ) ;
#64 = COORDINATED_UNIVERSAL_TIME_OFFSET ( 10, 0, .AHEAD. ) ;
#65 = ORIENTED_EDGE ( 'NONE', *, *, #22, .F. ) ;
#66 = APPROVAL ( #231, 'UNSPECIFIED' ) ;
#67 = ORIENTED_EDGE ( 'NONE', *, *, #197, .F. ) ;
#68 = SHAPE_DEFINITION_REPRESENTATION ( #242, #216 ) ;
#69 = EDGE_LOOP ( 'NONE', ( #6, #65 ) ) ;
#70 = LOCAL_TIME ( 12, 0, 37.00000000000000000, #130 ) ;
#71 = DIRECTION ( 'NONE',  ( -0.9063077870366527122, -0.4226182617406937791, -0.000000000000000000 ) ) ;
#72 = DATE_AND_TIME ( #47, #112 ) ;
#73 = ORIENTED_EDGE ( 'NONE', *, *, #208, .F. ) ;
#74 = DIRECTION ( 'NONE',  ( 0.000000000000000000, 0.000000000000000000, -1.000000000000000000 ) ) ;
#75 = AXIS2_PLACEMENT_3D ( 'NONE', #38, #126, #200 ) ;
#76 = DIRECTION ( 'NONE',  ( -1.000000000000000000, -0.000000000000000000, -0.000000000000000000 ) ) ;
#77 = EDGE_CURVE ( 'NONE', #95, #228, #192, .T. ) ;
#78 = CARTESIAN_POINT ( 'NONE',  ( 0.000000000000000000, 0.000000000000000000, -3.692310099429271186E-15 ) ) ;
#79 = AXIS2_PLACEMENT_3D ( 'NONE', #96, #209, #150 ) ;
#80 = DIRECTION ( 'NONE',  ( 1.000000000000000000, 0.000000000000000000, 0.000000000000000000 ) ) ;
#81 = EDGE_CURVE ( 'NONE', #240, #95, #158, .T. ) ;
#82 = CARTESIAN_POINT ( 'NONE',  ( 0.000000000000000000, 106.3500000000000085, 0.000000000000000000 ) ) ;
#83 = DIRECTION ( 'NONE',  ( 1.000000000000000000, 0.000000000000000000, 0.000000000000000000 ) ) ;
#84 = AXIS2_PLACEMENT_3D ( 'NONE', #78, #43, #115 ) ;
#85 = COORDINATED_UNIVERSAL_TIME_OFFSET ( 10, 0, .AHEAD. ) ;
#86 = PRODUCT_RELATED_PRODUCT_CATEGORY ( 'detail', '', ( #50 ) ) ;
#87 = ORIENTED_EDGE ( 'NONE', *, *, #173, .T. ) ;
#88 = APPROVAL_ROLE ( '' ) ;
#89 = CARTESIAN_POINT ( 'NONE',  ( -32.20351154464086108, 69.06065337219293099, 0.000000000000000000 ) ) ;
#90 = CIRCLE ( 'NONE', #241, 106.3500000000000085 ) ;
#91 = PLANE ( 'NONE',  #161 ) ;
#92 = ORIENTED_EDGE ( 'NONE', *, *, #152, .T. ) ;
#93 = FACE_OUTER_BOUND ( 'NONE', #69, .T. ) ;
#94 = ADVANCED_FACE ( 'NONE', ( #17, #93 ), #222, .F. ) ;
#95 = VERTEX_POINT ( 'NONE', #11 ) ;
#96 = CARTESIAN_POINT ( 'NONE',  ( 0.000000000000000000, 0.000000000000000000, 0.000000000000000000 ) ) ;
#97 = DIRECTION ( 'NONE',  ( 0.000000000000000000, 0.000000000000000000, 1.000000000000000000 ) ) ;
#98 = CARTESIAN_POINT ( 'NONE',  ( 0.000000000000000000, 46.04999999999999716, -3.692310099429270397E-15 ) ) ;
#99 = APPLICATION_PROTOCOL_DEFINITION ( 'international standard', 'config_control_design', 1994, #107 ) ;
#100 = CC_DESIGN_PERSON_AND_ORGANIZATION_ASSIGNMENT ( #179, #220, ( #217 ) ) ;
#101 = AXIS2_PLACEMENT_3D ( 'NONE', #205, #143, #35 ) ;
#102 = DIRECTION ( 'NONE',  ( 1.000000000000000000, 0.000000000000000000, 0.000000000000000000 ) ) ;
#103 = DATE_AND_TIME ( #40, #70 ) ;
#104 = ORIENTED_EDGE ( 'NONE', *, *, #81, .T. ) ;
#105 = CLOSED_SHELL ( 'NONE', ( #188, #230, #110, #94, #159, #58 ) ) ;
#106 = CC_DESIGN_APPROVAL ( #66, ( #217 ) ) ;
#107 = APPLICATION_CONTEXT ( 'configuration controlled 3d designs of mechanical parts and assemblies' ) ;
#108 = DIRECTION ( 'NONE',  ( 1.000000000000000000, 0.000000000000000000, 0.000000000000000000 ) ) ;
#109 = ORIENTED_EDGE ( 'NONE', *, *, #173, .F. ) ;
#110 = ADVANCED_FACE ( 'NONE', ( #19 ), #196, .F. ) ;
#111 = EDGE_LOOP ( 'NONE', ( #31, #253 ) ) ;
#112 = LOCAL_TIME ( 12, 0, 37.00000000000000000, #85 ) ;
#113 = CARTESIAN_POINT ( 'NONE',  ( 0.000000000000000000, 76.20000000000000284, 0.000000000000000000 ) ) ;
#114 = AXIS2_PLACEMENT_3D ( 'NONE', #55, #125, #206 ) ;
#115 = DIRECTION ( 'NONE',  ( 1.000000000000000000, 0.000000000000000000, 0.000000000000000000 ) ) ;
#116 = DATE_TIME_ROLE ( 'creation_date' ) ;
#117 = MANIFOLD_SOLID_BREP ( 'Sweep1', #105 ) ;
#118 = CIRCLE ( 'NONE', #187, 30.15000000000000568 ) ;
#119 = LOCAL_TIME ( 12, 0, 37.00000000000000000, #32 ) ;
#120 = CALENDAR_DATE ( 2025, 20, 11 ) ;
#121 = PERSON ( 'UNSPECIFIED', 'UNSPECIFIED', 'UNSPECIFIED', ('UNSPECIFIED'), ('UNSPECIFIED'), ('UNSPECIFIED') ) ;
#122 = EDGE_LOOP ( 'NONE', ( #67, #15, #87, #7 ) ) ;
#123 = PERSON_AND_ORGANIZATION ( #121, #18 ) ;
#124 = CC_DESIGN_DATE_AND_TIME_ASSIGNMENT ( #201, #239, ( #210 ) ) ;
#125 = DIRECTION ( 'NONE',  ( 0.9063077870366527122, 0.4226182617406937791, 0.000000000000000000 ) ) ;
#126 = DIRECTION ( 'NONE',  ( 0.000000000000000000, 0.000000000000000000, 1.000000000000000000 ) ) ;
#127 = TOROIDAL_SURFACE ( 'NONE', #79, 76.20000000000000284, 30.15000000000000568 ) ;
#128 = CARTESIAN_POINT ( 'NONE',  ( -21.10978217394765011, 45.27007396248079374, -3.214697847761802372E-15 ) ) ;
#129 = DIRECTION ( 'NONE',  ( 0.000000000000000000, 0.000000000000000000, 1.000000000000000000 ) ) ;
#130 = COORDINATED_UNIVERSAL_TIME_OFFSET ( 10, 0, .AHEAD. ) ;
#131 = CIRCLE ( 'NONE', #63, 26.25000000000000355 ) ;
#132 = DIRECTION ( 'NONE',  ( 1.000000000000000000, 0.000000000000000000, 0.000000000000000000 ) ) ;
#133 = APPROVAL_ROLE ( '' ) ;
#134 = AXIS2_PLACEMENT_3D ( 'NONE', #89, #33, #52 ) ;
#135 = LOCAL_TIME ( 12, 0, 37.00000000000000000, #64 ) ;
#136 = ORIENTED_EDGE ( 'NONE', *, *, #77, .T. ) ;
#137 = COORDINATED_UNIVERSAL_TIME_OFFSET ( 10, 0, .AHEAD. ) ;
#138 = EDGE_LOOP ( 'NONE', ( #248, #46, #144, #92 ) ) ;
#139 = APPROVAL_DATE_TIME ( #103, #66 ) ;
#140 = PRODUCT_DEFINITION_FORMATION_WITH_SPECIFIED_SOURCE ( 'ANY', '', #50, .NOT_KNOWN. ) ;
#141 = DIRECTION ( 'NONE',  ( -1.000000000000000000, -0.000000000000000000, -0.000000000000000000 ) ) ;
#142 = APPROVAL_STATUS ( 'not_yet_approved' ) ;
#143 = DIRECTION ( 'NONE',  ( 0.000000000000000000, 0.000000000000000000, 1.000000000000000000 ) ) ;
#144 = ORIENTED_EDGE ( 'NONE', *, *, #208, .T. ) ;
#145 = CARTESIAN_POINT ( 'NONE',  ( 0.000000000000000000, 76.20000000000000284, 0.000000000000000000 ) ) ;
#146 = CARTESIAN_POINT ( 'NONE',  ( -32.20351154464086108, 69.06065337219293099, 0.000000000000000000 ) ) ;
#147 = PERSON_AND_ORGANIZATION ( #121, #18 ) ;
#148 = CARTESIAN_POINT ( 'NONE',  ( -44.94545213612278900, 96.38583315134802376, 0.000000000000000000 ) ) ;
#149 = CIRCLE ( 'NONE', #178, 26.25000000000000355 ) ;
#150 = DIRECTION ( 'NONE',  ( 1.000000000000000000, 0.000000000000000000, 0.000000000000000000 ) ) ;
#151 = CARTESIAN_POINT ( 'NONE',  ( 0.000000000000000000, 0.000000000000000000, -3.214697847761802372E-15 ) ) ;
#152 = EDGE_CURVE ( 'NONE', #8, #228, #131, .T. ) ;
#153 = CC_DESIGN_APPROVAL ( #218, ( #210 ) ) ;
#154 = APPROVAL_DATE_TIME ( #49, #191 ) ;
#155 = APPROVAL_STATUS ( 'not_yet_approved' ) ;
#156 = EDGE_LOOP ( 'NONE', ( #44, #165, #157, #109 ) ) ;
#157 = ORIENTED_EDGE ( 'NONE', *, *, #22, .T. ) ;
#158 = CIRCLE ( 'NONE', #45, 26.25000000000000355 ) ;
#159 = ADVANCED_FACE ( 'NONE', ( #224, #202 ), #91, .T. ) ;
#160 = PERSON_AND_ORGANIZATION ( #121, #18 ) ;
#161 = AXIS2_PLACEMENT_3D ( 'NONE', #164, #80, #212 ) ;
#162 = CARTESIAN_POINT ( 'NONE',  ( 0.000000000000000000, 76.20000000000000284, 0.000000000000000000 ) ) ;
#163 = PERSON_AND_ORGANIZATION_ROLE ( 'design_supplier' ) ;
#164 = CARTESIAN_POINT ( 'NONE',  ( 0.000000000000000000, 76.20000000000000284, 0.000000000000000000 ) ) ;
#165 = ORIENTED_EDGE ( 'NONE', *, *, #197, .T. ) ;
#166 = VERTEX_POINT ( 'NONE', #169 ) ;
#167 = AXIS2_PLACEMENT_3D ( 'NONE', #146, #245, #74 ) ;
#168 = CARTESIAN_POINT ( 'NONE',  ( -32.20351154464086108, 69.06065337219293099, 0.000000000000000000 ) ) ;
#169 = CARTESIAN_POINT ( 'NONE',  ( -19.46157095315894026, 41.73547359303784532, -3.692310099429271186E-15 ) ) ;
#170 = CC_DESIGN_PERSON_AND_ORGANIZATION_ASSIGNMENT ( #238, #163, ( #140 ) ) ;
#171 =( NAMED_UNIT ( * ) SI_UNIT ( $, .STERADIAN. ) SOLID_ANGLE_UNIT ( ) );
#172 = CC_DESIGN_SECURITY_CLASSIFICATION ( #210, ( #140 ) ) ;
#173 = EDGE_CURVE ( 'NONE', #180, #166, #250, .T. ) ;
#174 = DIRECTION ( 'NONE',  ( 0.000000000000000000, 0.000000000000000000, 1.000000000000000000 ) ) ;
#175 = CARTESIAN_POINT ( 'NONE',  ( 0.000000000000000000, 0.000000000000000000, 0.000000000000000000 ) ) ;
#176 = PERSON_AND_ORGANIZATION ( #121, #18 ) ;
#177 = EDGE_LOOP ( 'NONE', ( #243, #136, #51, #73 ) ) ;
#178 = AXIS2_PLACEMENT_3D ( 'NONE', #60, #76, #190 ) ;
#179 = PERSON_AND_ORGANIZATION ( #121, #18 ) ;
#180 = VERTEX_POINT ( 'NONE', #98 ) ;
#181 = APPROVAL_DATE_TIME ( #25, #218 ) ;
#182 = TOROIDAL_SURFACE ( 'NONE', #75, 76.20000000000000284, 30.15000000000000568 ) ;
#183 = DIRECTION ( 'NONE',  ( 0.000000000000000000, 0.000000000000000000, -1.000000000000000000 ) ) ;
#184 = DIRECTION ( 'NONE',  ( 0.000000000000000000, 0.000000000000000000, -1.000000000000000000 ) ) ;
#185 = CIRCLE ( 'NONE', #134, 30.15000000000000568 ) ;
#186 = VERTEX_POINT ( 'NONE', #148 ) ;
#187 = AXIS2_PLACEMENT_3D ( 'NONE', #113, #194, #211 ) ;
#188 = ADVANCED_FACE ( 'NONE', ( #41 ), #59, .F. ) ;
#189 = DIRECTION ( 'NONE',  ( 1.000000000000000000, 0.000000000000000000, 0.000000000000000000 ) ) ;
#190 = DIRECTION ( 'NONE',  ( 0.000000000000000000, 0.000000000000000000, -1.000000000000000000 ) ) ;
#191 = APPROVAL ( #155, 'UNSPECIFIED' ) ;
#192 = CIRCLE ( 'NONE', #101, 102.4500000000000171 ) ;
#193 = CARTESIAN_POINT ( 'NONE',  ( -43.29724091533407915, 92.85123278190506824, 0.000000000000000000 ) ) ;
#194 = DIRECTION ( 'NONE',  ( 1.000000000000000000, 0.000000000000000000, 0.000000000000000000 ) ) ;
#195 = PERSON_AND_ORGANIZATION_ROLE ( 'creator' ) ;
#196 = TOROIDAL_SURFACE ( 'NONE', #54, 76.20000000000000284, 26.25000000000000355 ) ;
#197 = EDGE_CURVE ( 'NONE', #207, #186, #90, .T. ) ;
#198 = AXIS2_PLACEMENT_3D ( 'NONE', #62, #1, #189 ) ;
#199 = PERSON_AND_ORGANIZATION_ROLE ( 'classification_officer' ) ;
#200 = DIRECTION ( 'NONE',  ( 1.000000000000000000, 0.000000000000000000, 0.000000000000000000 ) ) ;
#201 = DATE_AND_TIME ( #4, #135 ) ;
#202 = FACE_OUTER_BOUND ( 'NONE', #27, .T. ) ;
#203 = AXIS2_PLACEMENT_3D ( 'NONE', #175, #97, #83 ) ;
#204 = EDGE_CURVE ( 'NONE', #207, #180, #118, .T. ) ;
#205 = CARTESIAN_POINT ( 'NONE',  ( 0.000000000000000000, 0.000000000000000000, 0.000000000000000000 ) ) ;
#206 = DIRECTION ( 'NONE',  ( 0.000000000000000000, 0.000000000000000000, -1.000000000000000000 ) ) ;
#207 = VERTEX_POINT ( 'NONE', #82 ) ;
#208 = EDGE_CURVE ( 'NONE', #240, #8, #5, .T. ) ;
#209 = DIRECTION ( 'NONE',  ( 0.000000000000000000, 0.000000000000000000, 1.000000000000000000 ) ) ;
#210 = SECURITY_CLASSIFICATION ( '', '', #12 ) ;
#211 = DIRECTION ( 'NONE',  ( 0.000000000000000000, 0.000000000000000000, -1.000000000000000000 ) ) ;
#212 = DIRECTION ( 'NONE',  ( 0.000000000000000000, 0.000000000000000000, -1.000000000000000000 ) ) ;
#213 = CIRCLE ( 'NONE', #114, 30.15000000000000568 ) ;
#214 = PERSON_AND_ORGANIZATION ( #121, #18 ) ;
#215 = ORIENTED_EDGE ( 'NONE', *, *, #28, .T. ) ;
#216 = ADVANCED_BREP_SHAPE_REPRESENTATION ( 'OEM-50-LRX25-40-316L_REV_', ( #117, #203 ), #221 ) ;
#217 = PRODUCT_DEFINITION ( 'UNKNOWN', '', #140, #227 ) ;
#218 = APPROVAL ( #142, 'UNSPECIFIED' ) ;
#219 = ORIENTED_EDGE ( 'NONE', *, *, #204, .T. ) ;
#220 = PERSON_AND_ORGANIZATION_ROLE ( 'creator' ) ;
#221 =( GEOMETRIC_REPRESENTATION_CONTEXT ( 3 ) GLOBAL_UNCERTAINTY_ASSIGNED_CONTEXT ( ( #251 ) ) GLOBAL_UNIT_ASSIGNED_CONTEXT ( ( #21, #42, #171 ) ) REPRESENTATION_CONTEXT ( 'NONE', 'WORKASPACE' ) );
#222 = PLANE ( 'NONE',  #48 ) ;
#223 = CALENDAR_DATE ( 2025, 20, 11 ) ;
#224 = FACE_BOUND ( 'NONE', #53, .T. ) ;
#225 = DIRECTION ( 'NONE',  ( 0.9063077870366527122, 0.4226182617406937791, 0.000000000000000000 ) ) ;
#226 = APPROVAL_PERSON_ORGANIZATION ( #147, #66, #57 ) ;
#227 = DESIGN_CONTEXT ( 'detailed design', #107, 'design' ) ;
#228 = VERTEX_POINT ( 'NONE', #193 ) ;
#229 = CARTESIAN_POINT ( 'NONE',  ( -32.20351154464086108, 69.06065337219293099, 0.000000000000000000 ) ) ;
#230 = ADVANCED_FACE ( 'NONE', ( #61 ), #127, .T. ) ;
#231 = APPROVAL_STATUS ( 'not_yet_approved' ) ;
#232 = CARTESIAN_POINT ( 'NONE',  ( 0.000000000000000000, 49.95000000000000284, -3.214697847761802372E-15 ) ) ;
#233 = AXIS2_PLACEMENT_3D ( 'NONE', #151, #20, #132 ) ;
#234 = CC_DESIGN_PERSON_AND_ORGANIZATION_ASSIGNMENT ( #123, #195, ( #140 ) ) ;
#235 = CARTESIAN_POINT ( 'NONE',  ( 0.000000000000000000, 0.000000000000000000, 0.000000000000000000 ) ) ;
#236 = MECHANICAL_CONTEXT ( 'NONE', #247, 'mechanical' ) ;
#237 = LOCAL_TIME ( 12, 0, 37.00000000000000000, #137 ) ;
#238 = PERSON_AND_ORGANIZATION ( #121, #18 ) ;
#239 = DATE_TIME_ROLE ( 'classification_date' ) ;
#240 = VERTEX_POINT ( 'NONE', #232 ) ;
#241 = AXIS2_PLACEMENT_3D ( 'NONE', #235, #174, #2 ) ;
#242 = PRODUCT_DEFINITION_SHAPE ( 'NONE', 'NONE',  #217 ) ;
#243 = ORIENTED_EDGE ( 'NONE', *, *, #246, .F. ) ;
#244 = APPROVAL_PERSON_ORGANIZATION ( #160, #191, #88 ) ;
#245 = DIRECTION ( 'NONE',  ( -0.9063077870366527122, -0.4226182617406937791, -0.000000000000000000 ) ) ;
#246 = EDGE_CURVE ( 'NONE', #95, #240, #149, .T. ) ;
#247 = APPLICATION_CONTEXT ( 'configuration controlled 3d designs of mechanical parts and assemblies' ) ;
#248 = ORIENTED_EDGE ( 'NONE', *, *, #77, .F. ) ;
#249 = ORIENTED_EDGE ( 'NONE', *, *, #246, .T. ) ;
#250 = CIRCLE ( 'NONE', #84, 46.04999999999999716 ) ;
#251 = UNCERTAINTY_MEASURE_WITH_UNIT (LENGTH_MEASURE( 1.000000000000000082E-05 ), #21, 'distance_accuracy_value', 'NONE');
#252 = DIRECTION ( 'NONE',  ( 0.000000000000000000, 0.000000000000000000, -1.000000000000000000 ) ) ;
#253 = ORIENTED_EDGE ( 'NONE', *, *, #10, .F. ) ;
ENDSEC;
END-ISO-10303-21;
