ISO-10303-21;
HEADER;
FILE_DESCRIPTION (( 'STEP AP203' ),
    '1' );
FILE_NAME ('OEM-50-LRX30-40-316L_REV_.step',
    '2025-11-20T01:10:35',
    ( '' ),
    ( '' ),
    'SwSTEP 2.0',
    'SolidWorks 2025',
    '' );
FILE_SCHEMA (( 'CONFIG_CONTROL_DESIGN' ));
ENDSEC;

DATA;
#1 = CC_DESIGN_APPROVAL ( #235, ( #89 ) ) ;
#2 = APPROVAL_ROLE ( '' ) ;
#3 = DIRECTION ( 'NONE',  ( 0.8660254037844415942, 0.4999999999999948930, 0.000000000000000000 ) ) ;
#4 = AXIS2_PLACEMENT_3D ( 'NONE', #91, #3, #146 ) ;
#5 = VERTEX_POINT ( 'NONE', #239 ) ;
#6 = ORIENTED_EDGE ( 'NONE', *, *, #97, .F. ) ;
#7 = EDGE_LOOP ( 'NONE', ( #180, #87 ) ) ;
#8 = EDGE_LOOP ( 'NONE', ( #163, #162, #218, #44 ) ) ;
#9 = CIRCLE ( 'NONE', #249, 49.95000000000000284 ) ;
#10 = PLANE ( 'NONE',  #246 ) ;
#11 = PRODUCT_RELATED_PRODUCT_CATEGORY ( 'detail', '', ( #70 ) ) ;
#12 = DIRECTION ( 'NONE',  ( 0.000000000000000000, 0.000000000000000000, 1.000000000000000000 ) ) ;
#13 = DIRECTION ( 'NONE',  ( 1.000000000000000000, 0.000000000000000000, 0.000000000000000000 ) ) ;
#14 = DIRECTION ( 'NONE',  ( 0.000000000000000000, 0.000000000000000000, -1.000000000000000000 ) ) ;
#15 = EDGE_CURVE ( 'NONE', #214, #233, #215, .T. ) ;
#16 = FACE_OUTER_BOUND ( 'NONE', #199, .T. ) ;
#17 = CALENDAR_DATE ( 2025, 20, 11 ) ;
#18 = LOCAL_TIME ( 12, 10, 35.00000000000000000, #173 ) ;
#19 = PERSON_AND_ORGANIZATION ( #122, #207 ) ;
#20 = APPROVAL_ROLE ( '' ) ;
#21 = CARTESIAN_POINT ( 'NONE',  ( 0.000000000000000000, 0.000000000000000000, 0.000000000000000000 ) ) ;
#22 = APPROVAL_PERSON_ORGANIZATION ( #137, #50, #2 ) ;
#23 = CC_DESIGN_PERSON_AND_ORGANIZATION_ASSIGNMENT ( #19, #61, ( #241 ) ) ;
#24 = VERTEX_POINT ( 'NONE', #66 ) ;
#25 = PRODUCT_DEFINITION_SHAPE ( 'NONE', 'NONE',  #89 ) ;
#26 = ORIENTED_EDGE ( 'NONE', *, *, #15, .F. ) ;
#27 = DIRECTION ( 'NONE',  ( -0.8660254037844415942, -0.4999999999999948930, -0.000000000000000000 ) ) ;
#28 = EDGE_LOOP ( 'NONE', ( #69, #179, #48, #6 ) ) ;
#29 = CARTESIAN_POINT ( 'NONE',  ( 0.000000000000000000, 76.20000000000000284, 0.000000000000000000 ) ) ;
#30 = AXIS2_PLACEMENT_3D ( 'NONE', #73, #216, #120 ) ;
#31 = CARTESIAN_POINT ( 'NONE',  ( 0.000000000000000000, 0.000000000000000000, 0.000000000000000000 ) ) ;
#32 = FACE_OUTER_BOUND ( 'NONE', #8, .T. ) ;
#33 = EDGE_CURVE ( 'NONE', #24, #214, #230, .T. ) ;
#34 = DIRECTION ( 'NONE',  ( 0.000000000000000000, 0.000000000000000000, 1.000000000000000000 ) ) ;
#35 = DIRECTION ( 'NONE',  ( 0.000000000000000000, 0.000000000000000000, 1.000000000000000000 ) ) ;
#36 = PERSON_AND_ORGANIZATION ( #122, #207 ) ;
#37 = CIRCLE ( 'NONE', #114, 26.25000000000000355 ) ;
#38 = EDGE_CURVE ( 'NONE', #71, #233, #174, .T. ) ;
#39 = CALENDAR_DATE ( 2025, 20, 11 ) ;
#40 = MECHANICAL_CONTEXT ( 'NONE', #197, 'mechanical' ) ;
#41 = APPROVAL_STATUS ( 'not_yet_approved' ) ;
#42 = EDGE_CURVE ( 'NONE', #5, #126, #67, .T. ) ;
#43 = CIRCLE ( 'NONE', #90, 30.15000000000000568 ) ;
#44 = ORIENTED_EDGE ( 'NONE', *, *, #42, .T. ) ;
#45 = ORIENTED_EDGE ( 'NONE', *, *, #38, .F. ) ;
#46 = ORIENTED_EDGE ( 'NONE', *, *, #33, .T. ) ;
#47 = DIRECTION ( 'NONE',  ( 0.000000000000000000, 0.000000000000000000, 1.000000000000000000 ) ) ;
#48 = ORIENTED_EDGE ( 'NONE', *, *, #74, .T. ) ;
#49 = DIRECTION ( 'NONE',  ( 1.000000000000000000, 0.000000000000000000, 0.000000000000000000 ) ) ;
#50 = APPROVAL ( #82, 'UNSPECIFIED' ) ;
#51 = CARTESIAN_POINT ( 'NONE',  ( 0.000000000000000000, 0.000000000000000000, 0.000000000000000000 ) ) ;
#52 = AXIS2_PLACEMENT_3D ( 'NONE', #115, #205, #53 ) ;
#53 = DIRECTION ( 'NONE',  ( 0.000000000000000000, 0.000000000000000000, -1.000000000000000000 ) ) ;
#54 = DIRECTION ( 'NONE',  ( 0.000000000000000000, 0.000000000000000000, -1.000000000000000000 ) ) ;
#55 = EDGE_CURVE ( 'NONE', #108, #124, #37, .T. ) ;
#56 =( LENGTH_UNIT ( ) NAMED_UNIT ( * ) SI_UNIT ( .MILLI., .METRE. ) );
#57 = TOROIDAL_SURFACE ( 'NONE', #200, 76.20000000000000284, 30.15000000000000568 ) ;
#58 = COORDINATED_UNIVERSAL_TIME_OFFSET ( 10, 0, .AHEAD. ) ;
#59 = APPROVAL_STATUS ( 'not_yet_approved' ) ;
#60 = DESIGN_CONTEXT ( 'detailed design', #210, 'design' ) ;
#61 = PERSON_AND_ORGANIZATION_ROLE ( 'classification_officer' ) ;
#62 = CIRCLE ( 'NONE', #86, 102.4500000000000171 ) ;
#63 = PERSON_AND_ORGANIZATION ( #122, #207 ) ;
#64 = CC_DESIGN_PERSON_AND_ORGANIZATION_ASSIGNMENT ( #191, #121, ( #102 ) ) ;
#65 = APPLICATION_PROTOCOL_DEFINITION ( 'international standard', 'config_control_design', 1994, #210 ) ;
#66 = CARTESIAN_POINT ( 'NONE',  ( 0.000000000000000000, 46.04999999999999716, -3.692310099429270397E-15 ) ) ;
#67 = CIRCLE ( 'NONE', #151, 26.25000000000000355 ) ;
#68 = ORIENTED_EDGE ( 'NONE', *, *, #189, .T. ) ;
#69 = ORIENTED_EDGE ( 'NONE', *, *, #55, .F. ) ;
#70 = PRODUCT ( 'OEM-50-LRX30-40-316L_REV_', 'OEM-50-LRX30-40-316L_REV_', '', ( #40 ) ) ;
#71 = VERTEX_POINT ( 'NONE', #125 ) ;
#72 = TOROIDAL_SURFACE ( 'NONE', #211, 76.20000000000000284, 26.25000000000000355 ) ;
#73 = CARTESIAN_POINT ( 'NONE',  ( -38.09999999999961773, 65.99113576837446260, 0.000000000000000000 ) ) ;
#74 = EDGE_CURVE ( 'NONE', #126, #5, #187, .T. ) ;
#75 = DIRECTION ( 'NONE',  ( 1.000000000000000000, 0.000000000000000000, 0.000000000000000000 ) ) ;
#76 = DIRECTION ( 'NONE',  ( 0.000000000000000000, 0.000000000000000000, 1.000000000000000000 ) ) ;
#77 = DIRECTION ( 'NONE',  ( 0.000000000000000000, 0.000000000000000000, -1.000000000000000000 ) ) ;
#78 = CALENDAR_DATE ( 2025, 20, 11 ) ;
#79 = CIRCLE ( 'NONE', #155, 30.15000000000000568 ) ;
#80 = CC_DESIGN_DATE_AND_TIME_ASSIGNMENT ( #172, #193, ( #241 ) ) ;
#81 = SHAPE_DEFINITION_REPRESENTATION ( #25, #94 ) ;
#82 = APPROVAL_STATUS ( 'not_yet_approved' ) ;
#83 = ADVANCED_FACE ( 'NONE', ( #133 ), #57, .T. ) ;
#84 = AXIS2_PLACEMENT_3D ( 'NONE', #188, #152, #223 ) ;
#85 = DIRECTION ( 'NONE',  ( 0.000000000000000000, 0.000000000000000000, 1.000000000000000000 ) ) ;
#86 = AXIS2_PLACEMENT_3D ( 'NONE', #131, #35, #95 ) ;
#87 = ORIENTED_EDGE ( 'NONE', *, *, #55, .T. ) ;
#88 = DIRECTION ( 'NONE',  ( -1.000000000000000000, -0.000000000000000000, -0.000000000000000000 ) ) ;
#89 = PRODUCT_DEFINITION ( 'UNKNOWN', '', #102, #60 ) ;
#90 = AXIS2_PLACEMENT_3D ( 'NONE', #29, #75, #77 ) ;
#91 = CARTESIAN_POINT ( 'NONE',  ( -38.09999999999961773, 65.99113576837446260, 0.000000000000000000 ) ) ;
#92 = DIRECTION ( 'NONE',  ( 0.000000000000000000, 0.000000000000000000, -1.000000000000000000 ) ) ;
#93 = DIRECTION ( 'NONE',  ( 0.8660254037844415942, 0.4999999999999948930, 0.000000000000000000 ) ) ;
#94 = ADVANCED_BREP_SHAPE_REPRESENTATION ( 'OEM-50-LRX30-40-316L_REV_', ( #186, #103 ), #237 ) ;
#95 = DIRECTION ( 'NONE',  ( 1.000000000000000000, 0.000000000000000000, 0.000000000000000000 ) ) ;
#96 = TOROIDAL_SURFACE ( 'NONE', #127, 76.20000000000000284, 30.15000000000000568 ) ;
#97 = EDGE_CURVE ( 'NONE', #124, #5, #9, .T. ) ;
#98 = PLANE ( 'NONE',  #110 ) ;
#99 = PERSON_AND_ORGANIZATION ( #122, #207 ) ;
#100 = CC_DESIGN_PERSON_AND_ORGANIZATION_ASSIGNMENT ( #63, #252, ( #89 ) ) ;
#101 =( NAMED_UNIT ( * ) SI_UNIT ( $, .STERADIAN. ) SOLID_ANGLE_UNIT ( ) );
#102 = PRODUCT_DEFINITION_FORMATION_WITH_SPECIFIED_SOURCE ( 'ANY', '', #70, .NOT_KNOWN. ) ;
#103 = AXIS2_PLACEMENT_3D ( 'NONE', #21, #209, #171 ) ;
#104 = COORDINATED_UNIVERSAL_TIME_OFFSET ( 10, 0, .AHEAD. ) ;
#105 = DATE_AND_TIME ( #39, #143 ) ;
#106 = ADVANCED_FACE ( 'NONE', ( #134, #16 ), #10, .T. ) ;
#107 = LOCAL_TIME ( 12, 10, 35.00000000000000000, #104 ) ;
#108 = VERTEX_POINT ( 'NONE', #225 ) ;
#109 = ORIENTED_EDGE ( 'NONE', *, *, #74, .F. ) ;
#110 = AXIS2_PLACEMENT_3D ( 'NONE', #224, #243, #54 ) ;
#111 = EDGE_LOOP ( 'NONE', ( #142, #109 ) ) ;
#112 = ORIENTED_EDGE ( 'NONE', *, *, #148, .T. ) ;
#113 = EDGE_LOOP ( 'NONE', ( #26, #130 ) ) ;
#114 = AXIS2_PLACEMENT_3D ( 'NONE', #196, #88, #240 ) ;
#115 = CARTESIAN_POINT ( 'NONE',  ( 0.000000000000000000, 76.20000000000000284, 0.000000000000000000 ) ) ;
#116 = FACE_BOUND ( 'NONE', #111, .T. ) ;
#117 = EDGE_CURVE ( 'NONE', #24, #71, #43, .T. ) ;
#118 = CARTESIAN_POINT ( 'NONE',  ( -23.02499999999976765, 39.88046984427354147, -3.692310099429271186E-15 ) ) ;
#119 = FACE_OUTER_BOUND ( 'NONE', #28, .T. ) ;
#120 = DIRECTION ( 'NONE',  ( 0.000000000000000000, 0.000000000000000000, -1.000000000000000000 ) ) ;
#121 = PERSON_AND_ORGANIZATION_ROLE ( 'creator' ) ;
#122 = PERSON ( 'UNSPECIFIED', 'UNSPECIFIED', 'UNSPECIFIED', ('UNSPECIFIED'), ('UNSPECIFIED'), ('UNSPECIFIED') ) ;
#123 = CLOSED_SHELL ( 'NONE', ( #128, #83, #139, #178, #106, #226 ) ) ;
#124 = VERTEX_POINT ( 'NONE', #184 ) ;
#125 = CARTESIAN_POINT ( 'NONE',  ( 0.000000000000000000, 106.3500000000000085, 0.000000000000000000 ) ) ;
#126 = VERTEX_POINT ( 'NONE', #153 ) ;
#127 = AXIS2_PLACEMENT_3D ( 'NONE', #183, #247, #150 ) ;
#128 = ADVANCED_FACE ( 'NONE', ( #119 ), #161, .F. ) ;
#129 = ORIENTED_EDGE ( 'NONE', *, *, #15, .T. ) ;
#130 = ORIENTED_EDGE ( 'NONE', *, *, #189, .F. ) ;
#131 = CARTESIAN_POINT ( 'NONE',  ( 0.000000000000000000, 0.000000000000000000, 0.000000000000000000 ) ) ;
#132 = CC_DESIGN_APPROVAL ( #245, ( #102 ) ) ;
#133 = FACE_OUTER_BOUND ( 'NONE', #145, .T. ) ;
#134 = FACE_BOUND ( 'NONE', #7, .T. ) ;
#135 = LOCAL_TIME ( 12, 10, 35.00000000000000000, #58 ) ;
#136 = APPROVAL_DATE_TIME ( #228, #50 ) ;
#137 = PERSON_AND_ORGANIZATION ( #122, #207 ) ;
#138 = AXIS2_PLACEMENT_3D ( 'NONE', #242, #49, #14 ) ;
#139 = ADVANCED_FACE ( 'NONE', ( #32 ), #72, .F. ) ;
#140 = CALENDAR_DATE ( 2025, 20, 11 ) ;
#141 = CC_DESIGN_PERSON_AND_ORGANIZATION_ASSIGNMENT ( #227, #231, ( #70 ) ) ;
#142 = ORIENTED_EDGE ( 'NONE', *, *, #42, .F. ) ;
#143 = LOCAL_TIME ( 12, 10, 35.00000000000000000, #156 ) ;
#144 = DIRECTION ( 'NONE',  ( 0.000000000000000000, 0.000000000000000000, -1.000000000000000000 ) ) ;
#145 = EDGE_LOOP ( 'NONE', ( #236, #164, #68, #176 ) ) ;
#146 = DIRECTION ( 'NONE',  ( 0.000000000000000000, 0.000000000000000000, -1.000000000000000000 ) ) ;
#147 = AXIS2_PLACEMENT_3D ( 'NONE', #175, #47, #149 ) ;
#148 = EDGE_CURVE ( 'NONE', #71, #24, #177, .T. ) ;
#149 = DIRECTION ( 'NONE',  ( 1.000000000000000000, 0.000000000000000000, 0.000000000000000000 ) ) ;
#150 = DIRECTION ( 'NONE',  ( 1.000000000000000000, 0.000000000000000000, 0.000000000000000000 ) ) ;
#151 = AXIS2_PLACEMENT_3D ( 'NONE', #221, #27, #144 ) ;
#152 = DIRECTION ( 'NONE',  ( 0.000000000000000000, 0.000000000000000000, 1.000000000000000000 ) ) ;
#153 = CARTESIAN_POINT ( 'NONE',  ( -51.22499999999948272, 88.72430261771604876, 0.000000000000000000 ) ) ;
#154 = APPROVAL_DATE_TIME ( #248, #245 ) ;
#155 = AXIS2_PLACEMENT_3D ( 'NONE', #185, #93, #92 ) ;
#156 = COORDINATED_UNIVERSAL_TIME_OFFSET ( 10, 0, .AHEAD. ) ;
#157 = PERSON_AND_ORGANIZATION_ROLE ( 'design_supplier' ) ;
#158 = EDGE_CURVE ( 'NONE', #108, #126, #62, .T. ) ;
#159 = CC_DESIGN_DATE_AND_TIME_ASSIGNMENT ( #229, #192, ( #89 ) ) ;
#160 = DIRECTION ( 'NONE',  ( 1.000000000000000000, 0.000000000000000000, 0.000000000000000000 ) ) ;
#161 = TOROIDAL_SURFACE ( 'NONE', #84, 76.20000000000000284, 26.25000000000000355 ) ;
#162 = ORIENTED_EDGE ( 'NONE', *, *, #181, .F. ) ;
#163 = ORIENTED_EDGE ( 'NONE', *, *, #158, .F. ) ;
#164 = ORIENTED_EDGE ( 'NONE', *, *, #38, .T. ) ;
#165 = CC_DESIGN_APPROVAL ( #50, ( #241 ) ) ;
#166 = CARTESIAN_POINT ( 'NONE',  ( 0.000000000000000000, 76.20000000000000284, 0.000000000000000000 ) ) ;
#167 = FACE_OUTER_BOUND ( 'NONE', #113, .T. ) ;
#168 = FACE_OUTER_BOUND ( 'NONE', #198, .T. ) ;
#169 = CARTESIAN_POINT ( 'NONE',  ( -53.17499999999946425, 92.10180169247537663, 0.000000000000000000 ) ) ;
#170 = LOCAL_TIME ( 12, 10, 35.00000000000000000, #213 ) ;
#171 = DIRECTION ( 'NONE',  ( 1.000000000000000000, 0.000000000000000000, 0.000000000000000000 ) ) ;
#172 = DATE_AND_TIME ( #253, #135 ) ;
#173 = COORDINATED_UNIVERSAL_TIME_OFFSET ( 10, 0, .AHEAD. ) ;
#174 = CIRCLE ( 'NONE', #203, 106.3500000000000085 ) ;
#175 = CARTESIAN_POINT ( 'NONE',  ( 0.000000000000000000, 0.000000000000000000, -3.692310099429271186E-15 ) ) ;
#176 = ORIENTED_EDGE ( 'NONE', *, *, #33, .F. ) ;
#177 = CIRCLE ( 'NONE', #138, 30.15000000000000568 ) ;
#178 = ADVANCED_FACE ( 'NONE', ( #116, #167 ), #98, .F. ) ;
#179 = ORIENTED_EDGE ( 'NONE', *, *, #158, .T. ) ;
#180 = ORIENTED_EDGE ( 'NONE', *, *, #181, .T. ) ;
#181 = EDGE_CURVE ( 'NONE', #124, #108, #219, .T. ) ;
#182 = APPROVAL_PERSON_ORGANIZATION ( #36, #235, #20 ) ;
#183 = CARTESIAN_POINT ( 'NONE',  ( 0.000000000000000000, 0.000000000000000000, 0.000000000000000000 ) ) ;
#184 = CARTESIAN_POINT ( 'NONE',  ( 0.000000000000000000, 49.95000000000000284, -3.214697847761802372E-15 ) ) ;
#185 = CARTESIAN_POINT ( 'NONE',  ( -38.09999999999961773, 65.99113576837446260, 0.000000000000000000 ) ) ;
#186 = MANIFOLD_SOLID_BREP ( 'Sweep1', #123 ) ;
#187 = CIRCLE ( 'NONE', #30, 26.25000000000000355 ) ;
#188 = CARTESIAN_POINT ( 'NONE',  ( 0.000000000000000000, 0.000000000000000000, 0.000000000000000000 ) ) ;
#189 = EDGE_CURVE ( 'NONE', #233, #214, #79, .T. ) ;
#190 = APPROVAL_DATE_TIME ( #105, #235 ) ;
#191 = PERSON_AND_ORGANIZATION ( #122, #207 ) ;
#192 = DATE_TIME_ROLE ( 'creation_date' ) ;
#193 = DATE_TIME_ROLE ( 'classification_date' ) ;
#194 = APPROVAL_ROLE ( '' ) ;
#195 = CC_DESIGN_SECURITY_CLASSIFICATION ( #241, ( #102 ) ) ;
#196 = CARTESIAN_POINT ( 'NONE',  ( 0.000000000000000000, 76.20000000000000284, 0.000000000000000000 ) ) ;
#197 = APPLICATION_CONTEXT ( 'configuration controlled 3d designs of mechanical parts and assemblies' ) ;
#198 = EDGE_LOOP ( 'NONE', ( #45, #238, #46, #129 ) ) ;
#199 = EDGE_LOOP ( 'NONE', ( #217, #112 ) ) ;
#200 = AXIS2_PLACEMENT_3D ( 'NONE', #31, #34, #13 ) ;
#201 = CARTESIAN_POINT ( 'NONE',  ( 0.000000000000000000, 0.000000000000000000, 0.000000000000000000 ) ) ;
#202 = DIRECTION ( 'NONE',  ( 0.000000000000000000, 0.000000000000000000, -1.000000000000000000 ) ) ;
#203 = AXIS2_PLACEMENT_3D ( 'NONE', #201, #85, #160 ) ;
#204 = CARTESIAN_POINT ( 'NONE',  ( 0.000000000000000000, 0.000000000000000000, -3.214697847761802372E-15 ) ) ;
#205 = DIRECTION ( 'NONE',  ( -1.000000000000000000, -0.000000000000000000, -0.000000000000000000 ) ) ;
#206 = DIRECTION ( 'NONE',  ( 1.000000000000000000, 0.000000000000000000, 0.000000000000000000 ) ) ;
#207 = ORGANIZATION ( 'UNSPECIFIED', 'UNSPECIFIED', '' ) ;
#208 =( NAMED_UNIT ( * ) PLANE_ANGLE_UNIT ( ) SI_UNIT ( $, .RADIAN. ) );
#209 = DIRECTION ( 'NONE',  ( 0.000000000000000000, 0.000000000000000000, 1.000000000000000000 ) ) ;
#210 = APPLICATION_CONTEXT ( 'configuration controlled 3d designs of mechanical parts and assemblies' ) ;
#211 = AXIS2_PLACEMENT_3D ( 'NONE', #51, #12, #222 ) ;
#212 = APPLICATION_PROTOCOL_DEFINITION ( 'international standard', 'config_control_design', 1994, #197 ) ;
#213 = COORDINATED_UNIVERSAL_TIME_OFFSET ( 10, 0, .AHEAD. ) ;
#214 = VERTEX_POINT ( 'NONE', #118 ) ;
#215 = CIRCLE ( 'NONE', #4, 30.15000000000000568 ) ;
#216 = DIRECTION ( 'NONE',  ( -0.8660254037844415942, -0.4999999999999948930, -0.000000000000000000 ) ) ;
#217 = ORIENTED_EDGE ( 'NONE', *, *, #117, .T. ) ;
#218 = ORIENTED_EDGE ( 'NONE', *, *, #97, .T. ) ;
#219 = CIRCLE ( 'NONE', #52, 26.25000000000000355 ) ;
#220 = CC_DESIGN_PERSON_AND_ORGANIZATION_ASSIGNMENT ( #232, #157, ( #102 ) ) ;
#221 = CARTESIAN_POINT ( 'NONE',  ( -38.09999999999961773, 65.99113576837446260, 0.000000000000000000 ) ) ;
#222 = DIRECTION ( 'NONE',  ( 1.000000000000000000, 0.000000000000000000, 0.000000000000000000 ) ) ;
#223 = DIRECTION ( 'NONE',  ( 1.000000000000000000, 0.000000000000000000, 0.000000000000000000 ) ) ;
#224 = CARTESIAN_POINT ( 'NONE',  ( -38.09999999999961773, 65.99113576837446260, 0.000000000000000000 ) ) ;
#225 = CARTESIAN_POINT ( 'NONE',  ( 0.000000000000000000, 102.4500000000000171, 0.000000000000000000 ) ) ;
#226 = ADVANCED_FACE ( 'NONE', ( #168 ), #96, .T. ) ;
#227 = PERSON_AND_ORGANIZATION ( #122, #207 ) ;
#228 = DATE_AND_TIME ( #17, #18 ) ;
#229 = DATE_AND_TIME ( #140, #170 ) ;
#230 = CIRCLE ( 'NONE', #147, 46.04999999999999716 ) ;
#231 = PERSON_AND_ORGANIZATION_ROLE ( 'design_owner' ) ;
#232 = PERSON_AND_ORGANIZATION ( #122, #207 ) ;
#233 = VERTEX_POINT ( 'NONE', #169 ) ;
#234 = APPROVAL_PERSON_ORGANIZATION ( #99, #245, #194 ) ;
#235 = APPROVAL ( #59, 'UNSPECIFIED' ) ;
#236 = ORIENTED_EDGE ( 'NONE', *, *, #148, .F. ) ;
#237 =( GEOMETRIC_REPRESENTATION_CONTEXT ( 3 ) GLOBAL_UNCERTAINTY_ASSIGNED_CONTEXT ( ( #251 ) ) GLOBAL_UNIT_ASSIGNED_CONTEXT ( ( #56, #208, #101 ) ) REPRESENTATION_CONTEXT ( 'NONE', 'WORKASPACE' ) );
#238 = ORIENTED_EDGE ( 'NONE', *, *, #117, .F. ) ;
#239 = CARTESIAN_POINT ( 'NONE',  ( -24.97499999999974918, 43.25796891903286934, -3.214697847761802372E-15 ) ) ;
#240 = DIRECTION ( 'NONE',  ( 0.000000000000000000, 0.000000000000000000, -1.000000000000000000 ) ) ;
#241 = SECURITY_CLASSIFICATION ( '', '', #250 ) ;
#242 = CARTESIAN_POINT ( 'NONE',  ( 0.000000000000000000, 76.20000000000000284, 0.000000000000000000 ) ) ;
#243 = DIRECTION ( 'NONE',  ( 0.8660254037844415942, 0.4999999999999949485, 0.000000000000000000 ) ) ;
#244 = DIRECTION ( 'NONE',  ( 1.000000000000000000, 0.000000000000000000, 0.000000000000000000 ) ) ;
#245 = APPROVAL ( #41, 'UNSPECIFIED' ) ;
#246 = AXIS2_PLACEMENT_3D ( 'NONE', #166, #206, #202 ) ;
#247 = DIRECTION ( 'NONE',  ( 0.000000000000000000, 0.000000000000000000, 1.000000000000000000 ) ) ;
#248 = DATE_AND_TIME ( #78, #107 ) ;
#249 = AXIS2_PLACEMENT_3D ( 'NONE', #204, #76, #244 ) ;
#250 = SECURITY_CLASSIFICATION_LEVEL ( 'unclassified' ) ;
#251 = UNCERTAINTY_MEASURE_WITH_UNIT (LENGTH_MEASURE( 1.000000000000000082E-05 ), #56, 'distance_accuracy_value', 'NONE');
#252 = PERSON_AND_ORGANIZATION_ROLE ( 'creator' ) ;
#253 = CALENDAR_DATE ( 2025, 20, 11 ) ;
ENDSEC;
END-ISO-10303-21;
