ISO-10303-21;
HEADER;
FILE_DESCRIPTION (( 'STEP AP203' ),
    '1' );
FILE_NAME ('OEM-50-LRX55-40-316L_REV_.step',
    '2025-11-20T01:07:09',
    ( '' ),
    ( '' ),
    'SwSTEP 2.0',
    'SolidWorks 2025',
    '' );
FILE_SCHEMA (( 'CONFIG_CONTROL_DESIGN' ));
ENDSEC;

DATA;
#1 = PERSON_AND_ORGANIZATION ( #221, #157 ) ;
#2 = CC_DESIGN_SECURITY_CLASSIFICATION ( #147, ( #114 ) ) ;
#3 = ORIENTED_EDGE ( 'NONE', *, *, #170, .F. ) ;
#4 = ADVANCED_FACE ( 'NONE', ( #119 ), #169, .T. ) ;
#5 = VERTEX_POINT ( 'NONE', #193 ) ;
#6 = APPROVAL_PERSON_ORGANIZATION ( #135, #55, #116 ) ;
#7 = ORIENTED_EDGE ( 'NONE', *, *, #81, .F. ) ;
#8 = ADVANCED_FACE ( 'NONE', ( #142 ), #155, .F. ) ;
#9 = EDGE_LOOP ( 'NONE', ( #46, #105, #160, #141 ) ) ;
#10 = CARTESIAN_POINT ( 'NONE',  ( 0.000000000000000000, 0.000000000000000000, 0.000000000000000000 ) ) ;
#11 = PRODUCT ( 'OEM-50-LRX55-40-316L_REV_', 'OEM-50-LRX55-40-316L_REV_', '', ( #79 ) ) ;
#12 = TOROIDAL_SURFACE ( 'NONE', #245, 76.20000000000000284, 26.25000000000000355 ) ;
#13 = CARTESIAN_POINT ( 'NONE',  ( 0.000000000000000000, 0.000000000000000000, 0.000000000000000000 ) ) ;
#14 = CARTESIAN_POINT ( 'NONE',  ( 0.000000000000000000, 46.04999999999999716, -3.692310099429270397E-15 ) ) ;
#15 = FACE_OUTER_BOUND ( 'NONE', #9, .T. ) ;
#16 = DIRECTION ( 'NONE',  ( 1.000000000000000000, 0.000000000000000000, 0.000000000000000000 ) ) ;
#17 =( NAMED_UNIT ( * ) SI_UNIT ( $, .STERADIAN. ) SOLID_ANGLE_UNIT ( ) );
#18 =( LENGTH_UNIT ( ) NAMED_UNIT ( * ) SI_UNIT ( .MILLI., .METRE. ) );
#19 = DIRECTION ( 'NONE',  ( 1.000000000000000000, 0.000000000000000000, 0.000000000000000000 ) ) ;
#20 = PERSON_AND_ORGANIZATION ( #221, #157 ) ;
#21 = EDGE_LOOP ( 'NONE', ( #138, #7 ) ) ;
#22 = CIRCLE ( 'NONE', #62, 26.25000000000000355 ) ;
#23 = ORIENTED_EDGE ( 'NONE', *, *, #237, .T. ) ;
#24 = PRODUCT_DEFINITION_SHAPE ( 'NONE', 'NONE',  #26 ) ;
#25 = ORIENTED_EDGE ( 'NONE', *, *, #118, .F. ) ;
#26 = PRODUCT_DEFINITION ( 'UNKNOWN', '', #114, #84 ) ;
#27 = UNCERTAINTY_MEASURE_WITH_UNIT (LENGTH_MEASURE( 1.000000000000000082E-05 ), #18, 'distance_accuracy_value', 'NONE');
#28 = CIRCLE ( 'NONE', #137, 30.15000000000000568 ) ;
#29 = ORIENTED_EDGE ( 'NONE', *, *, #170, .T. ) ;
#30 = DIRECTION ( 'NONE',  ( 1.000000000000000000, 0.000000000000000000, 0.000000000000000000 ) ) ;
#31 = DIRECTION ( 'NONE',  ( 0.000000000000000000, 0.000000000000000000, -1.000000000000000000 ) ) ;
#32 = CC_DESIGN_PERSON_AND_ORGANIZATION_ASSIGNMENT ( #45, #153, ( #26 ) ) ;
#33 = DIRECTION ( 'NONE',  ( 1.000000000000000000, 0.000000000000000000, 0.000000000000000000 ) ) ;
#34 = ADVANCED_BREP_SHAPE_REPRESENTATION ( 'OEM-50-LRX55-40-316L_REV_', ( #50, #76 ), #201 ) ;
#35 = CARTESIAN_POINT ( 'NONE',  ( -40.91664461223499671, 28.65014299573496359, -3.214697847761802372E-15 ) ) ;
#36 = FACE_BOUND ( 'NONE', #21, .T. ) ;
#37 = CC_DESIGN_PERSON_AND_ORGANIZATION_ASSIGNMENT ( #113, #185, ( #147 ) ) ;
#38 = SECURITY_CLASSIFICATION_LEVEL ( 'unclassified' ) ;
#39 = AXIS2_PLACEMENT_3D ( 'NONE', #127, #228, #19 ) ;
#40 = DATE_AND_TIME ( #208, #57 ) ;
#41 = CARTESIAN_POINT ( 'NONE',  ( 0.000000000000000000, 0.000000000000000000, 0.000000000000000000 ) ) ;
#42 = APPROVAL_DATE_TIME ( #40, #123 ) ;
#43 = CC_DESIGN_DATE_AND_TIME_ASSIGNMENT ( #65, #63, ( #26 ) ) ;
#44 = CIRCLE ( 'NONE', #214, 49.95000000000000284 ) ;
#45 = PERSON_AND_ORGANIZATION ( #221, #157 ) ;
#46 = ORIENTED_EDGE ( 'NONE', *, *, #247, .F. ) ;
#47 = APPROVAL_ROLE ( '' ) ;
#48 = ORIENTED_EDGE ( 'NONE', *, *, #224, .T. ) ;
#49 = EDGE_LOOP ( 'NONE', ( #195, #239, #48, #158 ) ) ;
#50 = MANIFOLD_SOLID_BREP ( 'Sweep1', #206 ) ;
#51 = VERTEX_POINT ( 'NONE', #190 ) ;
#52 = CIRCLE ( 'NONE', #72, 26.25000000000000355 ) ;
#53 = FACE_OUTER_BOUND ( 'NONE', #120, .T. ) ;
#54 = CARTESIAN_POINT ( 'NONE',  ( -87.11681991013396953, 60.99985400593421758, 0.000000000000000000 ) ) ;
#55 = APPROVAL ( #210, 'UNSPECIFIED' ) ;
#56 = DIRECTION ( 'NONE',  ( 1.000000000000000000, 0.000000000000000000, 0.000000000000000000 ) ) ;
#57 = LOCAL_TIME ( 12, 7, 9.000000000000000000, #97 ) ;
#58 = DIRECTION ( 'NONE',  ( 1.000000000000000000, 0.000000000000000000, 0.000000000000000000 ) ) ;
#59 = FACE_OUTER_BOUND ( 'NONE', #99, .T. ) ;
#60 = EDGE_CURVE ( 'NONE', #179, #178, #132, .T. ) ;
#61 = PERSON_AND_ORGANIZATION ( #221, #157 ) ;
#62 = AXIS2_PLACEMENT_3D ( 'NONE', #181, #162, #90 ) ;
#63 = DATE_TIME_ROLE ( 'creation_date' ) ;
#64 = PRODUCT_RELATED_PRODUCT_CATEGORY ( 'detail', '', ( #11 ) ) ;
#65 = DATE_AND_TIME ( #231, #187 ) ;
#66 = LOCAL_TIME ( 12, 7, 9.000000000000000000, #121 ) ;
#67 = EDGE_LOOP ( 'NONE', ( #174, #103 ) ) ;
#68 = ORIENTED_EDGE ( 'NONE', *, *, #60, .T. ) ;
#69 = TOROIDAL_SURFACE ( 'NONE', #104, 76.20000000000000284, 30.15000000000000568 ) ;
#70 = CALENDAR_DATE ( 2025, 20, 11 ) ;
#71 = ORIENTED_EDGE ( 'NONE', *, *, #172, .T. ) ;
#72 = AXIS2_PLACEMENT_3D ( 'NONE', #77, #226, #144 ) ;
#73 = DIRECTION ( 'NONE',  ( -0.5735764363510503783, -0.8191520442889888010, -0.000000000000000000 ) ) ;
#74 = DIRECTION ( 'NONE',  ( 0.000000000000000000, 0.000000000000000000, 1.000000000000000000 ) ) ;
#75 = PLANE ( 'NONE',  #230 ) ;
#76 = AXIS2_PLACEMENT_3D ( 'NONE', #41, #232, #95 ) ;
#77 = CARTESIAN_POINT ( 'NONE',  ( 0.000000000000000000, 76.20000000000000284, 0.000000000000000000 ) ) ;
#78 = DIRECTION ( 'NONE',  ( 1.000000000000000000, 0.000000000000000000, 0.000000000000000000 ) ) ;
#79 = MECHANICAL_CONTEXT ( 'NONE', #227, 'mechanical' ) ;
#80 = CIRCLE ( 'NONE', #92, 30.15000000000000568 ) ;
#81 = EDGE_CURVE ( 'NONE', #178, #179, #22, .T. ) ;
#82 = LOCAL_TIME ( 12, 7, 9.000000000000000000, #188 ) ;
#83 = EDGE_LOOP ( 'NONE', ( #86, #3, #71, #68 ) ) ;
#84 = DESIGN_CONTEXT ( 'detailed design', #151, 'design' ) ;
#85 = EDGE_LOOP ( 'NONE', ( #29, #122 ) ) ;
#86 = ORIENTED_EDGE ( 'NONE', *, *, #237, .F. ) ;
#87 = VERTEX_POINT ( 'NONE', #14 ) ;
#88 = CARTESIAN_POINT ( 'NONE',  ( 0.000000000000000000, 102.4500000000000171, 0.000000000000000000 ) ) ;
#89 = AXIS2_PLACEMENT_3D ( 'NONE', #220, #163, #148 ) ;
#90 = DIRECTION ( 'NONE',  ( 0.000000000000000000, 0.000000000000000000, -1.000000000000000000 ) ) ;
#91 = DIRECTION ( 'NONE',  ( 0.000000000000000000, 0.000000000000000000, 1.000000000000000000 ) ) ;
#92 = AXIS2_PLACEMENT_3D ( 'NONE', #243, #164, #182 ) ;
#93 = CARTESIAN_POINT ( 'NONE',  ( 0.000000000000000000, 76.20000000000000284, 0.000000000000000000 ) ) ;
#94 = CALENDAR_DATE ( 2025, 20, 11 ) ;
#95 = DIRECTION ( 'NONE',  ( 1.000000000000000000, 0.000000000000000000, 0.000000000000000000 ) ) ;
#96 = AXIS2_PLACEMENT_3D ( 'NONE', #101, #91, #198 ) ;
#97 = COORDINATED_UNIVERSAL_TIME_OFFSET ( 10, 0, .AHEAD. ) ;
#98 = APPROVAL_DATE_TIME ( #133, #55 ) ;
#99 = EDGE_LOOP ( 'NONE', ( #236, #197 ) ) ;
#100 = CIRCLE ( 'NONE', #117, 30.15000000000000568 ) ;
#101 = CARTESIAN_POINT ( 'NONE',  ( 0.000000000000000000, 0.000000000000000000, 0.000000000000000000 ) ) ;
#102 = APPROVAL ( #156, 'UNSPECIFIED' ) ;
#103 = ORIENTED_EDGE ( 'NONE', *, *, #224, .F. ) ;
#104 = AXIS2_PLACEMENT_3D ( 'NONE', #146, #225, #58 ) ;
#105 = ORIENTED_EDGE ( 'NONE', *, *, #128, .F. ) ;
#106 = FACE_BOUND ( 'NONE', #85, .T. ) ;
#107 = CARTESIAN_POINT ( 'NONE',  ( 0.000000000000000000, 49.95000000000000284, -3.214697847761802372E-15 ) ) ;
#108 = CIRCLE ( 'NONE', #233, 30.15000000000000568 ) ;
#109 = CARTESIAN_POINT ( 'NONE',  ( 0.000000000000000000, 0.000000000000000000, -3.214697847761802372E-15 ) ) ;
#110 = CARTESIAN_POINT ( 'NONE',  ( -62.41938577482095241, 43.70652444995003805, 0.000000000000000000 ) ) ;
#111 = DIRECTION ( 'NONE',  ( 0.5735764363510503783, 0.8191520442889888010, 0.000000000000000000 ) ) ;
#112 = AXIS2_PLACEMENT_3D ( 'NONE', #180, #111, #125 ) ;
#113 = PERSON_AND_ORGANIZATION ( #221, #157 ) ;
#114 = PRODUCT_DEFINITION_FORMATION_WITH_SPECIFIED_SOURCE ( 'ANY', '', #11, .NOT_KNOWN. ) ;
#115 = CC_DESIGN_PERSON_AND_ORGANIZATION_ASSIGNMENT ( #168, #134, ( #11 ) ) ;
#116 = APPROVAL_ROLE ( '' ) ;
#117 = AXIS2_PLACEMENT_3D ( 'NONE', #183, #16, #246 ) ;
#118 = EDGE_CURVE ( 'NONE', #215, #235, #173, .T. ) ;
#119 = FACE_OUTER_BOUND ( 'NONE', #49, .T. ) ;
#120 = EDGE_LOOP ( 'NONE', ( #25, #23, #192, #217 ) ) ;
#121 = COORDINATED_UNIVERSAL_TIME_OFFSET ( 10, 0, .AHEAD. ) ;
#122 = ORIENTED_EDGE ( 'NONE', *, *, #118, .T. ) ;
#123 = APPROVAL ( #205, 'UNSPECIFIED' ) ;
#124 = CIRCLE ( 'NONE', #250, 102.4500000000000171 ) ;
#125 = DIRECTION ( 'NONE',  ( 0.000000000000000000, 0.000000000000000000, -1.000000000000000000 ) ) ;
#126 = CARTESIAN_POINT ( 'NONE',  ( -62.41938577482095241, 43.70652444995003805, 0.000000000000000000 ) ) ;
#127 = CARTESIAN_POINT ( 'NONE',  ( 0.000000000000000000, 0.000000000000000000, -3.692310099429271186E-15 ) ) ;
#128 = EDGE_CURVE ( 'NONE', #87, #51, #80, .T. ) ;
#129 = DIRECTION ( 'NONE',  ( 0.000000000000000000, 0.000000000000000000, -1.000000000000000000 ) ) ;
#130 = CARTESIAN_POINT ( 'NONE',  ( -62.41938577482095241, 43.70652444995003805, 0.000000000000000000 ) ) ;
#131 = PERSON_AND_ORGANIZATION_ROLE ( 'design_supplier' ) ;
#132 = CIRCLE ( 'NONE', #191, 26.25000000000000355 ) ;
#133 = DATE_AND_TIME ( #94, #82 ) ;
#134 = PERSON_AND_ORGANIZATION_ROLE ( 'design_owner' ) ;
#135 = PERSON_AND_ORGANIZATION ( #221, #157 ) ;
#136 = LOCAL_TIME ( 12, 7, 9.000000000000000000, #167 ) ;
#137 = AXIS2_PLACEMENT_3D ( 'NONE', #126, #199, #31 ) ;
#138 = ORIENTED_EDGE ( 'NONE', *, *, #60, .F. ) ;
#139 = AXIS2_PLACEMENT_3D ( 'NONE', #145, #223, #56 ) ;
#140 = ADVANCED_FACE ( 'NONE', ( #15 ), #69, .T. ) ;
#141 = ORIENTED_EDGE ( 'NONE', *, *, #189, .T. ) ;
#142 = FACE_OUTER_BOUND ( 'NONE', #83, .T. ) ;
#143 = CC_DESIGN_APPROVAL ( #102, ( #147 ) ) ;
#144 = DIRECTION ( 'NONE',  ( 0.000000000000000000, 0.000000000000000000, -1.000000000000000000 ) ) ;
#145 = CARTESIAN_POINT ( 'NONE',  ( 0.000000000000000000, 0.000000000000000000, 0.000000000000000000 ) ) ;
#146 = CARTESIAN_POINT ( 'NONE',  ( 0.000000000000000000, 0.000000000000000000, 0.000000000000000000 ) ) ;
#147 = SECURITY_CLASSIFICATION ( '', '', #38 ) ;
#148 = DIRECTION ( 'NONE',  ( 0.000000000000000000, 0.000000000000000000, -1.000000000000000000 ) ) ;
#149 = APPROVAL_ROLE ( '' ) ;
#150 = CC_DESIGN_DATE_AND_TIME_ASSIGNMENT ( #234, #216, ( #147 ) ) ;
#151 = APPLICATION_CONTEXT ( 'configuration controlled 3d designs of mechanical parts and assemblies' ) ;
#152 =( NAMED_UNIT ( * ) PLANE_ANGLE_UNIT ( ) SI_UNIT ( $, .RADIAN. ) );
#153 = PERSON_AND_ORGANIZATION_ROLE ( 'creator' ) ;
#154 = SHAPE_DEFINITION_REPRESENTATION ( #24, #34 ) ;
#155 = TOROIDAL_SURFACE ( 'NONE', #96, 76.20000000000000284, 26.25000000000000355 ) ;
#156 = APPROVAL_STATUS ( 'not_yet_approved' ) ;
#157 = ORGANIZATION ( 'UNSPECIFIED', 'UNSPECIFIED', '' ) ;
#158 = ORIENTED_EDGE ( 'NONE', *, *, #252, .F. ) ;
#159 = ADVANCED_FACE ( 'NONE', ( #106, #59 ), #75, .T. ) ;
#160 = ORIENTED_EDGE ( 'NONE', *, *, #252, .T. ) ;
#161 = DIRECTION ( 'NONE',  ( 0.000000000000000000, 0.000000000000000000, 1.000000000000000000 ) ) ;
#162 = DIRECTION ( 'NONE',  ( -0.5735764363510503783, -0.8191520442889888010, -0.000000000000000000 ) ) ;
#163 = DIRECTION ( 'NONE',  ( -1.000000000000000000, -0.000000000000000000, -0.000000000000000000 ) ) ;
#164 = DIRECTION ( 'NONE',  ( 1.000000000000000000, 0.000000000000000000, 0.000000000000000000 ) ) ;
#165 = APPROVAL_PERSON_ORGANIZATION ( #212, #102, #47 ) ;
#166 = FACE_OUTER_BOUND ( 'NONE', #67, .T. ) ;
#167 = COORDINATED_UNIVERSAL_TIME_OFFSET ( 10, 0, .AHEAD. ) ;
#168 = PERSON_AND_ORGANIZATION ( #221, #157 ) ;
#169 = TOROIDAL_SURFACE ( 'NONE', #177, 76.20000000000000284, 30.15000000000000568 ) ;
#170 = EDGE_CURVE ( 'NONE', #235, #215, #52, .T. ) ;
#171 = PERSON_AND_ORGANIZATION_ROLE ( 'creator' ) ;
#172 = EDGE_CURVE ( 'NONE', #235, #179, #44, .T. ) ;
#173 = CIRCLE ( 'NONE', #89, 26.25000000000000355 ) ;
#174 = ORIENTED_EDGE ( 'NONE', *, *, #189, .F. ) ;
#175 = CALENDAR_DATE ( 2025, 20, 11 ) ;
#176 = DIRECTION ( 'NONE',  ( 1.000000000000000000, 0.000000000000000000, 0.000000000000000000 ) ) ;
#177 = AXIS2_PLACEMENT_3D ( 'NONE', #213, #238, #176 ) ;
#178 = VERTEX_POINT ( 'NONE', #222 ) ;
#179 = VERTEX_POINT ( 'NONE', #35 ) ;
#180 = CARTESIAN_POINT ( 'NONE',  ( -62.41938577482095241, 43.70652444995003805, 0.000000000000000000 ) ) ;
#181 = CARTESIAN_POINT ( 'NONE',  ( -62.41938577482095241, 43.70652444995003805, 0.000000000000000000 ) ) ;
#182 = DIRECTION ( 'NONE',  ( 0.000000000000000000, 0.000000000000000000, -1.000000000000000000 ) ) ;
#183 = CARTESIAN_POINT ( 'NONE',  ( 0.000000000000000000, 76.20000000000000284, 0.000000000000000000 ) ) ;
#184 = CC_DESIGN_APPROVAL ( #123, ( #26 ) ) ;
#185 = PERSON_AND_ORGANIZATION_ROLE ( 'classification_officer' ) ;
#186 = CC_DESIGN_PERSON_AND_ORGANIZATION_ASSIGNMENT ( #1, #131, ( #114 ) ) ;
#187 = LOCAL_TIME ( 12, 7, 9.000000000000000000, #248 ) ;
#188 = COORDINATED_UNIVERSAL_TIME_OFFSET ( 10, 0, .AHEAD. ) ;
#189 = EDGE_CURVE ( 'NONE', #5, #218, #108, .T. ) ;
#190 = CARTESIAN_POINT ( 'NONE',  ( 0.000000000000000000, 106.3500000000000085, 0.000000000000000000 ) ) ;
#191 = AXIS2_PLACEMENT_3D ( 'NONE', #110, #73, #244 ) ;
#192 = ORIENTED_EDGE ( 'NONE', *, *, #81, .T. ) ;
#193 = CARTESIAN_POINT ( 'NONE',  ( -37.72195163950793528, 26.41319489396586917, -3.692310099429271186E-15 ) ) ;
#194 = DATE_AND_TIME ( #175, #66 ) ;
#195 = ORIENTED_EDGE ( 'NONE', *, *, #207, .F. ) ;
#196 = APPROVAL_DATE_TIME ( #194, #102 ) ;
#197 = ORIENTED_EDGE ( 'NONE', *, *, #207, .T. ) ;
#198 = DIRECTION ( 'NONE',  ( 1.000000000000000000, 0.000000000000000000, 0.000000000000000000 ) ) ;
#199 = DIRECTION ( 'NONE',  ( 0.5735764363510503783, 0.8191520442889888010, 0.000000000000000000 ) ) ;
#200 = PLANE ( 'NONE',  #112 ) ;
#201 =( GEOMETRIC_REPRESENTATION_CONTEXT ( 3 ) GLOBAL_UNCERTAINTY_ASSIGNED_CONTEXT ( ( #27 ) ) GLOBAL_UNIT_ASSIGNED_CONTEXT ( ( #18, #152, #17 ) ) REPRESENTATION_CONTEXT ( 'NONE', 'WORKASPACE' ) );
#202 = DIRECTION ( 'NONE',  ( 0.000000000000000000, 0.000000000000000000, 1.000000000000000000 ) ) ;
#203 = ADVANCED_FACE ( 'NONE', ( #36, #166 ), #200, .F. ) ;
#204 = DIRECTION ( 'NONE',  ( 0.000000000000000000, 0.000000000000000000, -1.000000000000000000 ) ) ;
#205 = APPROVAL_STATUS ( 'not_yet_approved' ) ;
#206 = CLOSED_SHELL ( 'NONE', ( #211, #4, #8, #203, #159, #140 ) ) ;
#207 = EDGE_CURVE ( 'NONE', #51, #87, #100, .T. ) ;
#208 = CALENDAR_DATE ( 2025, 20, 11 ) ;
#209 = APPROVAL_PERSON_ORGANIZATION ( #20, #123, #149 ) ;
#210 = APPROVAL_STATUS ( 'not_yet_approved' ) ;
#211 = ADVANCED_FACE ( 'NONE', ( #53 ), #12, .F. ) ;
#212 = PERSON_AND_ORGANIZATION ( #221, #157 ) ;
#213 = CARTESIAN_POINT ( 'NONE',  ( 0.000000000000000000, 0.000000000000000000, 0.000000000000000000 ) ) ;
#214 = AXIS2_PLACEMENT_3D ( 'NONE', #109, #202, #78 ) ;
#215 = VERTEX_POINT ( 'NONE', #88 ) ;
#216 = DATE_TIME_ROLE ( 'classification_date' ) ;
#217 = ORIENTED_EDGE ( 'NONE', *, *, #172, .F. ) ;
#218 = VERTEX_POINT ( 'NONE', #54 ) ;
#219 = CC_DESIGN_APPROVAL ( #55, ( #114 ) ) ;
#220 = CARTESIAN_POINT ( 'NONE',  ( 0.000000000000000000, 76.20000000000000284, 0.000000000000000000 ) ) ;
#221 = PERSON ( 'UNSPECIFIED', 'UNSPECIFIED', 'UNSPECIFIED', ('UNSPECIFIED'), ('UNSPECIFIED'), ('UNSPECIFIED') ) ;
#222 = CARTESIAN_POINT ( 'NONE',  ( -83.92212693740691520, 58.76290590416512316, 0.000000000000000000 ) ) ;
#223 = DIRECTION ( 'NONE',  ( 0.000000000000000000, 0.000000000000000000, 1.000000000000000000 ) ) ;
#224 = EDGE_CURVE ( 'NONE', #218, #5, #28, .T. ) ;
#225 = DIRECTION ( 'NONE',  ( 0.000000000000000000, 0.000000000000000000, 1.000000000000000000 ) ) ;
#226 = DIRECTION ( 'NONE',  ( -1.000000000000000000, -0.000000000000000000, -0.000000000000000000 ) ) ;
#227 = APPLICATION_CONTEXT ( 'configuration controlled 3d designs of mechanical parts and assemblies' ) ;
#228 = DIRECTION ( 'NONE',  ( 0.000000000000000000, 0.000000000000000000, 1.000000000000000000 ) ) ;
#229 = CC_DESIGN_PERSON_AND_ORGANIZATION_ASSIGNMENT ( #61, #171, ( #114 ) ) ;
#230 = AXIS2_PLACEMENT_3D ( 'NONE', #93, #30, #129 ) ;
#231 = CALENDAR_DATE ( 2025, 20, 11 ) ;
#232 = DIRECTION ( 'NONE',  ( 0.000000000000000000, 0.000000000000000000, 1.000000000000000000 ) ) ;
#233 = AXIS2_PLACEMENT_3D ( 'NONE', #130, #242, #204 ) ;
#234 = DATE_AND_TIME ( #70, #136 ) ;
#235 = VERTEX_POINT ( 'NONE', #107 ) ;
#236 = ORIENTED_EDGE ( 'NONE', *, *, #128, .T. ) ;
#237 = EDGE_CURVE ( 'NONE', #215, #178, #124, .T. ) ;
#238 = DIRECTION ( 'NONE',  ( 0.000000000000000000, 0.000000000000000000, 1.000000000000000000 ) ) ;
#239 = ORIENTED_EDGE ( 'NONE', *, *, #247, .T. ) ;
#240 = CIRCLE ( 'NONE', #139, 106.3500000000000085 ) ;
#241 = DIRECTION ( 'NONE',  ( 1.000000000000000000, 0.000000000000000000, 0.000000000000000000 ) ) ;
#242 = DIRECTION ( 'NONE',  ( 0.5735764363510503783, 0.8191520442889888010, 0.000000000000000000 ) ) ;
#243 = CARTESIAN_POINT ( 'NONE',  ( 0.000000000000000000, 76.20000000000000284, 0.000000000000000000 ) ) ;
#244 = DIRECTION ( 'NONE',  ( 0.000000000000000000, 0.000000000000000000, -1.000000000000000000 ) ) ;
#245 = AXIS2_PLACEMENT_3D ( 'NONE', #10, #161, #241 ) ;
#246 = DIRECTION ( 'NONE',  ( 0.000000000000000000, 0.000000000000000000, -1.000000000000000000 ) ) ;
#247 = EDGE_CURVE ( 'NONE', #51, #218, #240, .T. ) ;
#248 = COORDINATED_UNIVERSAL_TIME_OFFSET ( 10, 0, .AHEAD. ) ;
#249 = CIRCLE ( 'NONE', #39, 46.04999999999999716 ) ;
#250 = AXIS2_PLACEMENT_3D ( 'NONE', #13, #74, #33 ) ;
#251 = APPLICATION_PROTOCOL_DEFINITION ( 'international standard', 'config_control_design', 1994, #227 ) ;
#252 = EDGE_CURVE ( 'NONE', #87, #5, #249, .T. ) ;
#253 = APPLICATION_PROTOCOL_DEFINITION ( 'international standard', 'config_control_design', 1994, #151 ) ;
ENDSEC;
END-ISO-10303-21;
