ISO-10303-21;
HEADER;
FILE_DESCRIPTION (( 'STEP AP203' ),
    '1' );
FILE_NAME ('OEM-50-LRX79-40-316L_REV_.step',
    '2025-11-20T01:06:00',
    ( '' ),
    ( '' ),
    'SwSTEP 2.0',
    'SolidWorks 2025',
    '' );
FILE_SCHEMA (( 'CONFIG_CONTROL_DESIGN' ));
ENDSEC;

DATA;
#1 = ORIENTED_EDGE ( 'NONE', *, *, #141, .T. ) ;
#2 = ORIENTED_EDGE ( 'NONE', *, *, #91, .F. ) ;
#3 = CC_DESIGN_PERSON_AND_ORGANIZATION_ASSIGNMENT ( #248, #235, ( #124 ) ) ;
#4 = DIRECTION ( 'NONE',  ( 0.000000000000000000, 0.000000000000000000, 1.000000000000000000 ) ) ;
#5 = TOROIDAL_SURFACE ( 'NONE', #22, 76.20000000000000284, 30.15000000000000568 ) ;
#6 = CIRCLE ( 'NONE', #184, 26.25000000000000355 ) ;
#7 = ORIENTED_EDGE ( 'NONE', *, *, #228, .T. ) ;
#8 = EDGE_LOOP ( 'NONE', ( #100, #222, #7, #164 ) ) ;
#9 = DIRECTION ( 'NONE',  ( 1.000000000000000000, 0.000000000000000000, 0.000000000000000000 ) ) ;
#10 = EDGE_CURVE ( 'NONE', #187, #41, #113, .T. ) ;
#11 = LOCAL_TIME ( 12, 6, 0.000000000000000000, #56 ) ;
#12 = DIRECTION ( 'NONE',  ( -1.000000000000000000, -0.000000000000000000, -0.000000000000000000 ) ) ;
#13 = MECHANICAL_CONTEXT ( 'NONE', #253, 'mechanical' ) ;
#14 = DIRECTION ( 'NONE',  ( 1.000000000000000000, 0.000000000000000000, 0.000000000000000000 ) ) ;
#15 = EDGE_CURVE ( 'NONE', #204, #221, #28, .T. ) ;
#16 = CARTESIAN_POINT ( 'NONE',  ( 0.000000000000000000, 0.000000000000000000, 0.000000000000000000 ) ) ;
#17 = AXIS2_PLACEMENT_3D ( 'NONE', #176, #132, #195 ) ;
#18 = ADVANCED_FACE ( 'NONE', ( #27, #120 ), #64, .F. ) ;
#19 = CIRCLE ( 'NONE', #182, 102.4500000000000171 ) ;
#20 = PERSON_AND_ORGANIZATION_ROLE ( 'design_supplier' ) ;
#21 = DIRECTION ( 'NONE',  ( -0.1908089953765488844, -0.9816271834476633096, -0.000000000000000000 ) ) ;
#22 = AXIS2_PLACEMENT_3D ( 'NONE', #40, #4, #143 ) ;
#23 = AXIS2_PLACEMENT_3D ( 'NONE', #16, #90, #9 ) ;
#24 = DIRECTION ( 'NONE',  ( 1.000000000000000000, 0.000000000000000000, 0.000000000000000000 ) ) ;
#25 = UNCERTAINTY_MEASURE_WITH_UNIT (LENGTH_MEASURE( 1.000000000000000082E-05 ), #155, 'distance_accuracy_value', 'NONE');
#26 = FACE_OUTER_BOUND ( 'NONE', #8, .T. ) ;
#27 = FACE_BOUND ( 'NONE', #172, .T. ) ;
#28 = CIRCLE ( 'NONE', #252, 30.15000000000000568 ) ;
#29 = CC_DESIGN_APPROVAL ( #241, ( #97 ) ) ;
#30 = ORIENTED_EDGE ( 'NONE', *, *, #192, .T. ) ;
#31 = CARTESIAN_POINT ( 'NONE',  ( -74.79999137871193682, 14.53964544769302236, 0.000000000000000000 ) ) ;
#32 = CC_DESIGN_DATE_AND_TIME_ASSIGNMENT ( #156, #251, ( #213 ) ) ;
#33 = APPLICATION_CONTEXT ( 'configuration controlled 3d designs of mechanical parts and assemblies' ) ;
#34 = COORDINATED_UNIVERSAL_TIME_OFFSET ( 10, 0, .AHEAD. ) ;
#35 = AXIS2_PLACEMENT_3D ( 'NONE', #63, #21, #76 ) ;
#36 = ADVANCED_FACE ( 'NONE', ( #203 ), #5, .T. ) ;
#37 = DATE_AND_TIME ( #115, #210 ) ;
#38 = CC_DESIGN_SECURITY_CLASSIFICATION ( #42, ( #97 ) ) ;
#39 = DATE_AND_TIME ( #92, #239 ) ;
#40 = CARTESIAN_POINT ( 'NONE',  ( 0.000000000000000000, 0.000000000000000000, 0.000000000000000000 ) ) ;
#41 = VERTEX_POINT ( 'NONE', #122 ) ;
#42 = SECURITY_CLASSIFICATION ( '', '', #72 ) ;
#43 = ORIENTED_EDGE ( 'NONE', *, *, #192, .F. ) ;
#44 = EDGE_LOOP ( 'NONE', ( #138, #103 ) ) ;
#45 = ORIENTED_EDGE ( 'NONE', *, *, #15, .F. ) ;
#46 = ORIENTED_EDGE ( 'NONE', *, *, #10, .T. ) ;
#47 =( NAMED_UNIT ( * ) PLANE_ANGLE_UNIT ( ) SI_UNIT ( $, .RADIAN. ) );
#48 = DIRECTION ( 'NONE',  ( 0.000000000000000000, 0.000000000000000000, -1.000000000000000000 ) ) ;
#49 = DIRECTION ( 'NONE',  ( 0.000000000000000000, 0.000000000000000000, -1.000000000000000000 ) ) ;
#50 = ADVANCED_FACE ( 'NONE', ( #220 ), #152, .F. ) ;
#51 = AXIS2_PLACEMENT_3D ( 'NONE', #226, #173, #14 ) ;
#52 = CARTESIAN_POINT ( 'NONE',  ( 0.000000000000000000, 46.04999999999999716, -3.692310099429270397E-15 ) ) ;
#53 = APPROVAL_DATE_TIME ( #71, #246 ) ;
#54 = APPROVAL_DATE_TIME ( #39, #136 ) ;
#55 = CC_DESIGN_APPROVAL ( #136, ( #213 ) ) ;
#56 = COORDINATED_UNIVERSAL_TIME_OFFSET ( 10, 0, .AHEAD. ) ;
#57 = CC_DESIGN_PERSON_AND_ORGANIZATION_ASSIGNMENT ( #161, #234, ( #42 ) ) ;
#58 = PERSON_AND_ORGANIZATION_ROLE ( 'creator' ) ;
#59 = CIRCLE ( 'NONE', #205, 46.04999999999999716 ) ;
#60 = AXIS2_PLACEMENT_3D ( 'NONE', #65, #229, #231 ) ;
#61 = EDGE_LOOP ( 'NONE', ( #43, #84, #207, #219 ) ) ;
#62 = DIRECTION ( 'NONE',  ( 0.000000000000000000, 0.000000000000000000, -1.000000000000000000 ) ) ;
#63 = CARTESIAN_POINT ( 'NONE',  ( -74.79999137871193682, 14.53964544769302236, 0.000000000000000000 ) ) ;
#64 = PLANE ( 'NONE',  #146 ) ;
#65 = CARTESIAN_POINT ( 'NONE',  ( 0.000000000000000000, 76.20000000000000284, 0.000000000000000000 ) ) ;
#66 = CIRCLE ( 'NONE', #178, 30.15000000000000568 ) ;
#67 = APPLICATION_PROTOCOL_DEFINITION ( 'international standard', 'config_control_design', 1994, #253 ) ;
#68 = CARTESIAN_POINT ( 'NONE',  ( 0.000000000000000000, 49.95000000000000284, -3.214697847761802372E-15 ) ) ;
#69 = CARTESIAN_POINT ( 'NONE',  ( 0.000000000000000000, 0.000000000000000000, 0.000000000000000000 ) ) ;
#70 = CARTESIAN_POINT ( 'NONE',  ( -74.79999137871193682, 14.53964544769302236, 0.000000000000000000 ) ) ;
#71 = DATE_AND_TIME ( #197, #11 ) ;
#72 = SECURITY_CLASSIFICATION_LEVEL ( 'unclassified' ) ;
#73 = APPROVAL_ROLE ( '' ) ;
#74 = CC_DESIGN_PERSON_AND_ORGANIZATION_ASSIGNMENT ( #95, #58, ( #213 ) ) ;
#75 = APPLICATION_PROTOCOL_DEFINITION ( 'international standard', 'config_control_design', 1994, #33 ) ;
#76 = DIRECTION ( 'NONE',  ( 0.000000000000000000, 0.000000000000000000, -1.000000000000000000 ) ) ;
#77 = ORIENTED_EDGE ( 'NONE', *, *, #228, .F. ) ;
#78 = DIRECTION ( 'NONE',  ( 0.000000000000000000, 0.000000000000000000, 1.000000000000000000 ) ) ;
#79 = APPROVAL_PERSON_ORGANIZATION ( #111, #136, #112 ) ;
#80 = DIRECTION ( 'NONE',  ( 1.000000000000000000, 0.000000000000000000, 0.000000000000000000 ) ) ;
#81 = EDGE_CURVE ( 'NONE', #204, #163, #59, .T. ) ;
#82 = DIRECTION ( 'NONE',  ( -1.000000000000000000, -0.000000000000000000, -0.000000000000000000 ) ) ;
#83 = DIRECTION ( 'NONE',  ( -0.1908089953765488844, -0.9816271834476633096, -0.000000000000000000 ) ) ;
#84 = ORIENTED_EDGE ( 'NONE', *, *, #131, .T. ) ;
#85 = CIRCLE ( 'NONE', #17, 49.95000000000000284 ) ;
#86 = DIRECTION ( 'NONE',  ( 1.000000000000000000, 0.000000000000000000, 0.000000000000000000 ) ) ;
#87 = ADVANCED_FACE ( 'NONE', ( #26 ), #158, .T. ) ;
#88 = DIRECTION ( 'NONE',  ( 0.1908089953765488844, 0.9816271834476633096, 0.000000000000000000 ) ) ;
#89 = FACE_OUTER_BOUND ( 'NONE', #61, .T. ) ;
#90 = DIRECTION ( 'NONE',  ( 0.000000000000000000, 0.000000000000000000, 1.000000000000000000 ) ) ;
#91 = EDGE_CURVE ( 'NONE', #215, #140, #230, .T. ) ;
#92 = CALENDAR_DATE ( 2025, 20, 11 ) ;
#93 = TOROIDAL_SURFACE ( 'NONE', #153, 76.20000000000000284, 26.25000000000000355 ) ;
#94 = EDGE_CURVE ( 'NONE', #221, #204, #147, .T. ) ;
#95 = PERSON_AND_ORGANIZATION ( #117, #110 ) ;
#96 = PERSON_AND_ORGANIZATION ( #117, #110 ) ;
#97 = PRODUCT_DEFINITION_FORMATION_WITH_SPECIFIED_SOURCE ( 'ANY', '', #124, .NOT_KNOWN. ) ;
#98 = CARTESIAN_POINT ( 'NONE',  ( 0.000000000000000000, 0.000000000000000000, 0.000000000000000000 ) ) ;
#99 = CARTESIAN_POINT ( 'NONE',  ( 0.000000000000000000, 0.000000000000000000, -3.692310099429271186E-15 ) ) ;
#100 = ORIENTED_EDGE ( 'NONE', *, *, #94, .F. ) ;
#101 = CARTESIAN_POINT ( 'NONE',  ( -74.79999137871193682, 14.53964544769302236, 0.000000000000000000 ) ) ;
#102 = LOCAL_TIME ( 12, 6, 0.000000000000000000, #157 ) ;
#103 = ORIENTED_EDGE ( 'NONE', *, *, #94, .T. ) ;
#104 =( NAMED_UNIT ( * ) SI_UNIT ( $, .STERADIAN. ) SOLID_ANGLE_UNIT ( ) );
#105 = ORIENTED_EDGE ( 'NONE', *, *, #126, .T. ) ;
#106 = DIRECTION ( 'NONE',  ( 0.000000000000000000, 0.000000000000000000, 1.000000000000000000 ) ) ;
#107 = ADVANCED_FACE ( 'NONE', ( #149, #150 ), #191, .T. ) ;
#108 = CARTESIAN_POINT ( 'NONE',  ( -49.03227781321077572, 9.530909319058613605, -3.214697847761802372E-15 ) ) ;
#109 = EDGE_CURVE ( 'NONE', #140, #215, #135, .T. ) ;
#110 = ORGANIZATION ( 'UNSPECIFIED', 'UNSPECIFIED', '' ) ;
#111 = PERSON_AND_ORGANIZATION ( #117, #110 ) ;
#112 = APPROVAL_ROLE ( '' ) ;
#113 = CIRCLE ( 'NONE', #165, 26.25000000000000355 ) ;
#114 = APPROVAL_DATE_TIME ( #37, #241 ) ;
#115 = CALENDAR_DATE ( 2025, 20, 11 ) ;
#116 = CARTESIAN_POINT ( 'NONE',  ( 0.000000000000000000, 0.000000000000000000, 0.000000000000000000 ) ) ;
#117 = PERSON ( 'UNSPECIFIED', 'UNSPECIFIED', 'UNSPECIFIED', ('UNSPECIFIED'), ('UNSPECIFIED'), ('UNSPECIFIED') ) ;
#118 = APPROVAL_PERSON_ORGANIZATION ( #199, #241, #73 ) ;
#119 = CARTESIAN_POINT ( 'NONE',  ( 0.000000000000000000, 76.20000000000000284, 0.000000000000000000 ) ) ;
#120 = FACE_OUTER_BOUND ( 'NONE', #243, .T. ) ;
#121 = DIRECTION ( 'NONE',  ( 0.000000000000000000, 0.000000000000000000, -1.000000000000000000 ) ) ;
#122 = CARTESIAN_POINT ( 'NONE',  ( 0.000000000000000000, 102.4500000000000171, 0.000000000000000000 ) ) ;
#123 = CARTESIAN_POINT ( 'NONE',  ( 0.000000000000000000, 0.000000000000000000, 0.000000000000000000 ) ) ;
#124 = PRODUCT ( 'OEM-50-LRX79-40-316L_REV_', 'OEM-50-LRX79-40-316L_REV_', '', ( #13 ) ) ;
#125 = CARTESIAN_POINT ( 'NONE',  ( -45.20393179776488779, 8.786754237090073971, -3.692310099429271186E-15 ) ) ;
#126 = EDGE_CURVE ( 'NONE', #163, #238, #129, .T. ) ;
#127 = DIRECTION ( 'NONE',  ( 0.000000000000000000, 0.000000000000000000, -1.000000000000000000 ) ) ;
#128 = CLOSED_SHELL ( 'NONE', ( #168, #87, #50, #18, #107, #36 ) ) ;
#129 = CIRCLE ( 'NONE', #223, 30.15000000000000568 ) ;
#130 = CARTESIAN_POINT ( 'NONE',  ( -100.5677049442130908, 19.54838157632743290, 0.000000000000000000 ) ) ;
#131 = EDGE_CURVE ( 'NONE', #41, #215, #19, .T. ) ;
#132 = DIRECTION ( 'NONE',  ( 0.000000000000000000, 0.000000000000000000, 1.000000000000000000 ) ) ;
#133 = DATE_AND_TIME ( #183, #102 ) ;
#134 = SHAPE_DEFINITION_REPRESENTATION ( #217, #225 ) ;
#135 = CIRCLE ( 'NONE', #214, 26.25000000000000355 ) ;
#136 = APPROVAL ( #212, 'UNSPECIFIED' ) ;
#137 = DIRECTION ( 'NONE',  ( 0.000000000000000000, 0.000000000000000000, 1.000000000000000000 ) ) ;
#138 = ORIENTED_EDGE ( 'NONE', *, *, #15, .T. ) ;
#139 = LOCAL_TIME ( 12, 6, 0.000000000000000000, #160 ) ;
#140 = VERTEX_POINT ( 'NONE', #108 ) ;
#141 = EDGE_CURVE ( 'NONE', #187, #140, #85, .T. ) ;
#142 = ORIENTED_EDGE ( 'NONE', *, *, #131, .F. ) ;
#143 = DIRECTION ( 'NONE',  ( 1.000000000000000000, 0.000000000000000000, 0.000000000000000000 ) ) ;
#144 = ORIENTED_EDGE ( 'NONE', *, *, #109, .F. ) ;
#145 = DIRECTION ( 'NONE',  ( 0.000000000000000000, 0.000000000000000000, -1.000000000000000000 ) ) ;
#146 = AXIS2_PLACEMENT_3D ( 'NONE', #101, #170, #62 ) ;
#147 = CIRCLE ( 'NONE', #250, 30.15000000000000568 ) ;
#148 = ORIENTED_EDGE ( 'NONE', *, *, #162, .F. ) ;
#149 = FACE_BOUND ( 'NONE', #242, .T. ) ;
#150 = FACE_OUTER_BOUND ( 'NONE', #44, .T. ) ;
#151 = DIRECTION ( 'NONE',  ( 1.000000000000000000, 0.000000000000000000, 0.000000000000000000 ) ) ;
#152 = TOROIDAL_SURFACE ( 'NONE', #177, 76.20000000000000284, 26.25000000000000355 ) ;
#153 = AXIS2_PLACEMENT_3D ( 'NONE', #69, #193, #151 ) ;
#154 = CC_DESIGN_PERSON_AND_ORGANIZATION_ASSIGNMENT ( #180, #20, ( #97 ) ) ;
#155 =( LENGTH_UNIT ( ) NAMED_UNIT ( * ) SI_UNIT ( .MILLI., .METRE. ) );
#156 = DATE_AND_TIME ( #198, #139 ) ;
#157 = COORDINATED_UNIVERSAL_TIME_OFFSET ( 10, 0, .AHEAD. ) ;
#158 = TOROIDAL_SURFACE ( 'NONE', #244, 76.20000000000000284, 30.15000000000000568 ) ;
#159 = COORDINATED_UNIVERSAL_TIME_OFFSET ( 10, 0, .AHEAD. ) ;
#160 = COORDINATED_UNIVERSAL_TIME_OFFSET ( 10, 0, .AHEAD. ) ;
#161 = PERSON_AND_ORGANIZATION ( #117, #110 ) ;
#162 = EDGE_CURVE ( 'NONE', #221, #238, #166, .T. ) ;
#163 = VERTEX_POINT ( 'NONE', #125 ) ;
#164 = ORIENTED_EDGE ( 'NONE', *, *, #81, .F. ) ;
#165 = AXIS2_PLACEMENT_3D ( 'NONE', #169, #82, #121 ) ;
#166 = CIRCLE ( 'NONE', #51, 106.3500000000000085 ) ;
#167 = DIRECTION ( 'NONE',  ( 0.000000000000000000, 0.000000000000000000, -1.000000000000000000 ) ) ;
#168 = ADVANCED_FACE ( 'NONE', ( #89 ), #93, .F. ) ;
#169 = CARTESIAN_POINT ( 'NONE',  ( 0.000000000000000000, 76.20000000000000284, 0.000000000000000000 ) ) ;
#170 = DIRECTION ( 'NONE',  ( 0.1908089953765488567, 0.9816271834476631986, 0.000000000000000000 ) ) ;
#171 = PRODUCT_RELATED_PRODUCT_CATEGORY ( 'detail', '', ( #124 ) ) ;
#172 = EDGE_LOOP ( 'NONE', ( #144, #2 ) ) ;
#173 = DIRECTION ( 'NONE',  ( 0.000000000000000000, 0.000000000000000000, 1.000000000000000000 ) ) ;
#174 = MANIFOLD_SOLID_BREP ( 'Sweep1', #128 ) ;
#175 = DIRECTION ( 'NONE',  ( 1.000000000000000000, 0.000000000000000000, 0.000000000000000000 ) ) ;
#176 = CARTESIAN_POINT ( 'NONE',  ( 0.000000000000000000, 0.000000000000000000, -3.214697847761802372E-15 ) ) ;
#177 = AXIS2_PLACEMENT_3D ( 'NONE', #116, #201, #24 ) ;
#178 = AXIS2_PLACEMENT_3D ( 'NONE', #70, #88, #127 ) ;
#179 =( GEOMETRIC_REPRESENTATION_CONTEXT ( 3 ) GLOBAL_UNCERTAINTY_ASSIGNED_CONTEXT ( ( #25 ) ) GLOBAL_UNIT_ASSIGNED_CONTEXT ( ( #155, #47, #104 ) ) REPRESENTATION_CONTEXT ( 'NONE', 'WORKASPACE' ) );
#180 = PERSON_AND_ORGANIZATION ( #117, #110 ) ;
#181 = PERSON_AND_ORGANIZATION ( #117, #110 ) ;
#182 = AXIS2_PLACEMENT_3D ( 'NONE', #123, #106, #86 ) ;
#183 = CALENDAR_DATE ( 2025, 20, 11 ) ;
#184 = AXIS2_PLACEMENT_3D ( 'NONE', #227, #12, #224 ) ;
#185 = DIRECTION ( 'NONE',  ( 1.000000000000000000, 0.000000000000000000, 0.000000000000000000 ) ) ;
#186 = DIRECTION ( 'NONE',  ( 1.000000000000000000, 0.000000000000000000, 0.000000000000000000 ) ) ;
#187 = VERTEX_POINT ( 'NONE', #68 ) ;
#188 = ORIENTED_EDGE ( 'NONE', *, *, #109, .T. ) ;
#189 = ORIENTED_EDGE ( 'NONE', *, *, #126, .F. ) ;
#190 = EDGE_LOOP ( 'NONE', ( #148, #45, #237, #105 ) ) ;
#191 = PLANE ( 'NONE',  #60 ) ;
#192 = EDGE_CURVE ( 'NONE', #41, #187, #6, .T. ) ;
#193 = DIRECTION ( 'NONE',  ( 0.000000000000000000, 0.000000000000000000, 1.000000000000000000 ) ) ;
#194 = CARTESIAN_POINT ( 'NONE',  ( -74.79999137871193682, 14.53964544769302236, 0.000000000000000000 ) ) ;
#195 = DIRECTION ( 'NONE',  ( 1.000000000000000000, 0.000000000000000000, 0.000000000000000000 ) ) ;
#196 = CC_DESIGN_DATE_AND_TIME_ASSIGNMENT ( #133, #233, ( #42 ) ) ;
#197 = CALENDAR_DATE ( 2025, 20, 11 ) ;
#198 = CALENDAR_DATE ( 2025, 20, 11 ) ;
#199 = PERSON_AND_ORGANIZATION ( #117, #110 ) ;
#200 = CC_DESIGN_PERSON_AND_ORGANIZATION_ASSIGNMENT ( #181, #249, ( #97 ) ) ;
#201 = DIRECTION ( 'NONE',  ( 0.000000000000000000, 0.000000000000000000, 1.000000000000000000 ) ) ;
#202 = APPROVAL_PERSON_ORGANIZATION ( #96, #246, #236 ) ;
#203 = FACE_OUTER_BOUND ( 'NONE', #190, .T. ) ;
#204 = VERTEX_POINT ( 'NONE', #52 ) ;
#205 = AXIS2_PLACEMENT_3D ( 'NONE', #99, #137, #186 ) ;
#206 = DESIGN_CONTEXT ( 'detailed design', #33, 'design' ) ;
#207 = ORIENTED_EDGE ( 'NONE', *, *, #91, .T. ) ;
#208 = CARTESIAN_POINT ( 'NONE',  ( 0.000000000000000000, 76.20000000000000284, 0.000000000000000000 ) ) ;
#209 = CARTESIAN_POINT ( 'NONE',  ( -104.3960509596589787, 20.29253665829596898, 0.000000000000000000 ) ) ;
#210 = LOCAL_TIME ( 12, 6, 0.000000000000000000, #159 ) ;
#211 = DIRECTION ( 'NONE',  ( 0.1908089953765488844, 0.9816271834476633096, 0.000000000000000000 ) ) ;
#212 = APPROVAL_STATUS ( 'not_yet_approved' ) ;
#213 = PRODUCT_DEFINITION ( 'UNKNOWN', '', #97, #206 ) ;
#214 = AXIS2_PLACEMENT_3D ( 'NONE', #31, #83, #49 ) ;
#215 = VERTEX_POINT ( 'NONE', #130 ) ;
#216 = EDGE_LOOP ( 'NONE', ( #142, #240, #1, #188 ) ) ;
#217 = PRODUCT_DEFINITION_SHAPE ( 'NONE', 'NONE',  #213 ) ;
#218 = CC_DESIGN_APPROVAL ( #246, ( #42 ) ) ;
#219 = ORIENTED_EDGE ( 'NONE', *, *, #141, .F. ) ;
#220 = FACE_OUTER_BOUND ( 'NONE', #216, .T. ) ;
#221 = VERTEX_POINT ( 'NONE', #245 ) ;
#222 = ORIENTED_EDGE ( 'NONE', *, *, #162, .T. ) ;
#223 = AXIS2_PLACEMENT_3D ( 'NONE', #194, #211, #145 ) ;
#224 = DIRECTION ( 'NONE',  ( 0.000000000000000000, 0.000000000000000000, -1.000000000000000000 ) ) ;
#225 = ADVANCED_BREP_SHAPE_REPRESENTATION ( 'OEM-50-LRX79-40-316L_REV_', ( #174, #23 ), #179 ) ;
#226 = CARTESIAN_POINT ( 'NONE',  ( 0.000000000000000000, 0.000000000000000000, 0.000000000000000000 ) ) ;
#227 = CARTESIAN_POINT ( 'NONE',  ( 0.000000000000000000, 76.20000000000000284, 0.000000000000000000 ) ) ;
#228 = EDGE_CURVE ( 'NONE', #238, #163, #66, .T. ) ;
#229 = DIRECTION ( 'NONE',  ( 1.000000000000000000, 0.000000000000000000, 0.000000000000000000 ) ) ;
#230 = CIRCLE ( 'NONE', #35, 26.25000000000000355 ) ;
#231 = DIRECTION ( 'NONE',  ( 0.000000000000000000, 0.000000000000000000, -1.000000000000000000 ) ) ;
#232 = APPROVAL_STATUS ( 'not_yet_approved' ) ;
#233 = DATE_TIME_ROLE ( 'classification_date' ) ;
#234 = PERSON_AND_ORGANIZATION_ROLE ( 'classification_officer' ) ;
#235 = PERSON_AND_ORGANIZATION_ROLE ( 'design_owner' ) ;
#236 = APPROVAL_ROLE ( '' ) ;
#237 = ORIENTED_EDGE ( 'NONE', *, *, #81, .T. ) ;
#238 = VERTEX_POINT ( 'NONE', #209 ) ;
#239 = LOCAL_TIME ( 12, 6, 0.000000000000000000, #34 ) ;
#240 = ORIENTED_EDGE ( 'NONE', *, *, #10, .F. ) ;
#241 = APPROVAL ( #232, 'UNSPECIFIED' ) ;
#242 = EDGE_LOOP ( 'NONE', ( #46, #30 ) ) ;
#243 = EDGE_LOOP ( 'NONE', ( #189, #77 ) ) ;
#244 = AXIS2_PLACEMENT_3D ( 'NONE', #98, #78, #185 ) ;
#245 = CARTESIAN_POINT ( 'NONE',  ( 0.000000000000000000, 106.3500000000000085, 0.000000000000000000 ) ) ;
#246 = APPROVAL ( #247, 'UNSPECIFIED' ) ;
#247 = APPROVAL_STATUS ( 'not_yet_approved' ) ;
#248 = PERSON_AND_ORGANIZATION ( #117, #110 ) ;
#249 = PERSON_AND_ORGANIZATION_ROLE ( 'creator' ) ;
#250 = AXIS2_PLACEMENT_3D ( 'NONE', #208, #175, #48 ) ;
#251 = DATE_TIME_ROLE ( 'creation_date' ) ;
#252 = AXIS2_PLACEMENT_3D ( 'NONE', #119, #80, #167 ) ;
#253 = APPLICATION_CONTEXT ( 'configuration controlled 3d designs of mechanical parts and assemblies' ) ;
ENDSEC;
END-ISO-10303-21;
