ISO-10303-21;
HEADER;
FILE_DESCRIPTION (( 'STEP AP203' ),
    '1' );
FILE_NAME ('OEM-65-JIS5K-3_REV_.step',
    '2025-11-20T00:56:29',
    ( '' ),
    ( '' ),
    'SwSTEP 2.0',
    'SolidWorks 2025',
    '' );
FILE_SCHEMA (( 'CONFIG_CONTROL_DESIGN' ));
ENDSEC;

DATA;
#1 = COORDINATED_UNIVERSAL_TIME_OFFSET ( 10, 0, .AHEAD. ) ;
#2 = EDGE_LOOP ( 'NONE', ( #230, #160, #211, #121 ) ) ;
#3 = LINE ( 'NONE', #77, #133 ) ;
#4 = LINE ( 'NONE', #138, #27 ) ;
#5 = DIRECTION ( 'NONE',  ( 1.000000000000000000, 0.000000000000000000, 0.000000000000000000 ) ) ;
#6 = CIRCLE ( 'NONE', #12, 56.00000000000000000 ) ;
#7 = EDGE_LOOP ( 'NONE', ( #212, #41 ) ) ;
#8 = ORIENTED_EDGE ( 'NONE', *, *, #34, .T. ) ;
#9 = EDGE_CURVE ( 'NONE', #131, #153, #141, .T. ) ;
#10 = DIRECTION ( 'NONE',  ( 1.000000000000000000, 0.000000000000000000, 0.000000000000000000 ) ) ;
#11 = APPLICATION_CONTEXT ( 'configuration controlled 3d designs of mechanical parts and assemblies' ) ;
#12 = AXIS2_PLACEMENT_3D ( 'NONE', #29, #61, #157 ) ;
#13 = CARTESIAN_POINT ( 'NONE',  ( -3.000000000000000000, 0.000000000000000000, 0.000000000000000000 ) ) ;
#14 = DIRECTION ( 'NONE',  ( 1.000000000000000000, 0.000000000000000000, 0.000000000000000000 ) ) ;
#15 = DIRECTION ( 'NONE',  ( 0.000000000000000000, 0.000000000000000000, -1.000000000000000000 ) ) ;
#16 = DATE_AND_TIME ( #56, #45 ) ;
#17 = VERTEX_POINT ( 'NONE', #156 ) ;
#18 = CIRCLE ( 'NONE', #100, 35.00000000000000711 ) ;
#19 = PERSON_AND_ORGANIZATION ( #224, #154 ) ;
#20 = CALENDAR_DATE ( 2025, 20, 11 ) ;
#21 = ORIENTED_EDGE ( 'NONE', *, *, #235, .T. ) ;
#22 = CARTESIAN_POINT ( 'NONE',  ( -3.000000000000000000, 0.000000000000000000, 0.000000000000000000 ) ) ;
#23 = DIRECTION ( 'NONE',  ( 1.000000000000000000, 0.000000000000000000, 0.000000000000000000 ) ) ;
#24 = CARTESIAN_POINT ( 'NONE',  ( -3.000000000000000000, 0.000000000000000000, 0.000000000000000000 ) ) ;
#25 = CC_DESIGN_APPROVAL ( #39, ( #81 ) ) ;
#26 = CARTESIAN_POINT ( 'NONE',  ( 0.000000000000000000, 4.286263797015737285E-15, 35.00000000000000711 ) ) ;
#27 = VECTOR ( 'NONE', #50, 1000.000000000000000 ) ;
#28 = LOCAL_TIME ( 11, 56, 29.00000000000000000, #228 ) ;
#29 = CARTESIAN_POINT ( 'NONE',  ( 0.000000000000000000, 0.000000000000000000, 0.000000000000000000 ) ) ;
#30 = DIRECTION ( 'NONE',  ( 0.000000000000000000, 0.000000000000000000, -1.000000000000000000 ) ) ;
#31 = PLANE ( 'NONE',  #112 ) ;
#32 = ADVANCED_FACE ( 'NONE', ( #236 ), #80, .F. ) ;
#33 = SECURITY_CLASSIFICATION ( '', '', #94 ) ;
#34 = EDGE_CURVE ( 'NONE', #90, #98, #161, .T. ) ;
#35 = PERSON_AND_ORGANIZATION_ROLE ( 'design_supplier' ) ;
#36 = LOCAL_TIME ( 11, 56, 29.00000000000000000, #1 ) ;
#37 = CALENDAR_DATE ( 2025, 20, 11 ) ;
#38 = CC_DESIGN_SECURITY_CLASSIFICATION ( #33, ( #233 ) ) ;
#39 = APPROVAL ( #163, 'UNSPECIFIED' ) ;
#40 = ORIENTED_EDGE ( 'NONE', *, *, #34, .F. ) ;
#41 = ORIENTED_EDGE ( 'NONE', *, *, #189, .F. ) ;
#42 = DIRECTION ( 'NONE',  ( 0.000000000000000000, 0.000000000000000000, -1.000000000000000000 ) ) ;
#43 = PRODUCT_DEFINITION_SHAPE ( 'NONE', 'NONE',  #81 ) ;
#44 = PLANE ( 'NONE',  #175 ) ;
#45 = LOCAL_TIME ( 11, 56, 29.00000000000000000, #130 ) ;
#46 = ORIENTED_EDGE ( 'NONE', *, *, #139, .T. ) ;
#47 = DIRECTION ( 'NONE',  ( 0.000000000000000000, 0.000000000000000000, -1.000000000000000000 ) ) ;
#48 = CARTESIAN_POINT ( 'NONE',  ( -3.000000000000000000, 0.000000000000000000, 0.000000000000000000 ) ) ;
#49 = APPROVAL_PERSON_ORGANIZATION ( #227, #65, #54 ) ;
#50 = DIRECTION ( 'NONE',  ( 1.000000000000000000, 0.000000000000000000, 0.000000000000000000 ) ) ;
#51 = FACE_OUTER_BOUND ( 'NONE', #247, .T. ) ;
#52 = CARTESIAN_POINT ( 'NONE',  ( 0.000000000000000000, 0.000000000000000000, 0.000000000000000000 ) ) ;
#53 = CLOSED_SHELL ( 'NONE', ( #32, #226, #238, #132, #190, #93 ) ) ;
#54 = APPROVAL_ROLE ( '' ) ;
#55 = ORIENTED_EDGE ( 'NONE', *, *, #102, .F. ) ;
#56 = CALENDAR_DATE ( 2025, 20, 11 ) ;
#57 = LOCAL_TIME ( 11, 56, 29.00000000000000000, #222 ) ;
#58 = VERTEX_POINT ( 'NONE', #213 ) ;
#59 = CARTESIAN_POINT ( 'NONE',  ( -3.000000000000000000, 4.286263797015737285E-15, 35.00000000000000711 ) ) ;
#60 = ORIENTED_EDGE ( 'NONE', *, *, #144, .T. ) ;
#61 = DIRECTION ( 'NONE',  ( 1.000000000000000000, 0.000000000000000000, 0.000000000000000000 ) ) ;
#62 = CARTESIAN_POINT ( 'NONE',  ( -3.000000000000000000, 0.000000000000000000, -56.00000000000000000 ) ) ;
#63 = APPROVAL_PERSON_ORGANIZATION ( #70, #39, #150 ) ;
#64 = EDGE_LOOP ( 'NONE', ( #231, #82, #104, #46 ) ) ;
#65 = APPROVAL ( #75, 'UNSPECIFIED' ) ;
#66 = DIRECTION ( 'NONE',  ( 0.000000000000000000, 0.000000000000000000, -1.000000000000000000 ) ) ;
#67 = FACE_BOUND ( 'NONE', #214, .T. ) ;
#68 = CIRCLE ( 'NONE', #242, 35.00000000000000711 ) ;
#69 = CC_DESIGN_DATE_AND_TIME_ASSIGNMENT ( #16, #206, ( #33 ) ) ;
#70 = PERSON_AND_ORGANIZATION ( #224, #154 ) ;
#71 = MANIFOLD_SOLID_BREP ( 'Boss-Extrude1', #53 ) ;
#72 = ORIENTED_EDGE ( 'NONE', *, *, #139, .F. ) ;
#73 = PERSON_AND_ORGANIZATION_ROLE ( 'classification_officer' ) ;
#74 = CC_DESIGN_APPROVAL ( #123, ( #33 ) ) ;
#75 = APPROVAL_STATUS ( 'not_yet_approved' ) ;
#76 = ORIENTED_EDGE ( 'NONE', *, *, #249, .T. ) ;
#77 = CARTESIAN_POINT ( 'NONE',  ( -3.000000000000000000, 6.858022075225178552E-15, 56.00000000000000000 ) ) ;
#78 = FACE_BOUND ( 'NONE', #135, .T. ) ;
#79 = DIRECTION ( 'NONE',  ( 0.000000000000000000, 0.000000000000000000, -1.000000000000000000 ) ) ;
#80 = CYLINDRICAL_SURFACE ( 'NONE', #125, 35.00000000000000711 ) ;
#81 = PRODUCT_DEFINITION ( 'UNKNOWN', '', #233, #221 ) ;
#82 = ORIENTED_EDGE ( 'NONE', *, *, #245, .F. ) ;
#83 = DIRECTION ( 'NONE',  ( 0.000000000000000000, 0.000000000000000000, -1.000000000000000000 ) ) ;
#84 = DIRECTION ( 'NONE',  ( 1.000000000000000000, 0.000000000000000000, 0.000000000000000000 ) ) ;
#85 = APPLICATION_PROTOCOL_DEFINITION ( 'international standard', 'config_control_design', 1994, #11 ) ;
#86 = DIRECTION ( 'NONE',  ( 1.000000000000000000, 0.000000000000000000, 0.000000000000000000 ) ) ;
#87 = CIRCLE ( 'NONE', #229, 56.00000000000000000 ) ;
#88 = CARTESIAN_POINT ( 'NONE',  ( 0.000000000000000000, 0.000000000000000000, 0.000000000000000000 ) ) ;
#89 = PERSON_AND_ORGANIZATION ( #224, #154 ) ;
#90 = VERTEX_POINT ( 'NONE', #62 ) ;
#91 = SHAPE_DEFINITION_REPRESENTATION ( #43, #149 ) ;
#92 = APPROVAL_DATE_TIME ( #187, #65 ) ;
#93 = ADVANCED_FACE ( 'NONE', ( #120 ), #174, .F. ) ;
#94 = SECURITY_CLASSIFICATION_LEVEL ( 'unclassified' ) ;
#95 = EDGE_CURVE ( 'NONE', #131, #58, #18, .T. ) ;
#96 = CARTESIAN_POINT ( 'NONE',  ( 0.000000000000000000, 0.000000000000000000, 0.000000000000000000 ) ) ;
#97 = CARTESIAN_POINT ( 'NONE',  ( -3.000000000000000000, 0.000000000000000000, 0.000000000000000000 ) ) ;
#98 = VERTEX_POINT ( 'NONE', #237 ) ;
#99 = CC_DESIGN_APPROVAL ( #65, ( #233 ) ) ;
#100 = AXIS2_PLACEMENT_3D ( 'NONE', #97, #191, #173 ) ;
#101 = CARTESIAN_POINT ( 'NONE',  ( -3.000000000000000000, 4.286263797015737285E-15, 35.00000000000000711 ) ) ;
#102 = EDGE_CURVE ( 'NONE', #153, #17, #158, .T. ) ;
#103 = APPLICATION_CONTEXT ( 'configuration controlled 3d designs of mechanical parts and assemblies' ) ;
#104 = ORIENTED_EDGE ( 'NONE', *, *, #182, .T. ) ;
#105 = DIRECTION ( 'NONE',  ( 0.000000000000000000, 0.000000000000000000, -1.000000000000000000 ) ) ;
#106 = DIRECTION ( 'NONE',  ( 1.000000000000000000, 0.000000000000000000, 0.000000000000000000 ) ) ;
#107 =( LENGTH_UNIT ( ) NAMED_UNIT ( * ) SI_UNIT ( .MILLI., .METRE. ) );
#108 = CARTESIAN_POINT ( 'NONE',  ( 0.000000000000000000, 0.000000000000000000, 0.000000000000000000 ) ) ;
#109 = CC_DESIGN_DATE_AND_TIME_ASSIGNMENT ( #185, #248, ( #81 ) ) ;
#110 = APPROVAL_DATE_TIME ( #167, #123 ) ;
#111 = ORIENTED_EDGE ( 'NONE', *, *, #144, .F. ) ;
#112 = AXIS2_PLACEMENT_3D ( 'NONE', #88, #86, #146 ) ;
#113 = AXIS2_PLACEMENT_3D ( 'NONE', #13, #10, #15 ) ;
#114 = EDGE_LOOP ( 'NONE', ( #111, #232, #8, #186 ) ) ;
#115 = ORIENTED_EDGE ( 'NONE', *, *, #129, .F. ) ;
#116 = AXIS2_PLACEMENT_3D ( 'NONE', #140, #5, #79 ) ;
#117 = DIRECTION ( 'NONE',  ( 1.000000000000000000, 0.000000000000000000, 0.000000000000000000 ) ) ;
#118 = DIRECTION ( 'NONE',  ( 1.000000000000000000, 0.000000000000000000, 0.000000000000000000 ) ) ;
#119 = EDGE_LOOP ( 'NONE', ( #76, #60, #115, #40 ) ) ;
#120 = FACE_OUTER_BOUND ( 'NONE', #64, .T. ) ;
#121 = ORIENTED_EDGE ( 'NONE', *, *, #182, .F. ) ;
#122 = CARTESIAN_POINT ( 'NONE',  ( -3.000000000000000000, 0.000000000000000000, 0.000000000000000000 ) ) ;
#123 = APPROVAL ( #168, 'UNSPECIFIED' ) ;
#124 = DIRECTION ( 'NONE',  ( 1.000000000000000000, 0.000000000000000000, 0.000000000000000000 ) ) ;
#125 = AXIS2_PLACEMENT_3D ( 'NONE', #22, #118, #42 ) ;
#126 = AXIS2_PLACEMENT_3D ( 'NONE', #48, #84, #105 ) ;
#127 = FACE_OUTER_BOUND ( 'NONE', #114, .T. ) ;
#128 = CARTESIAN_POINT ( 'NONE',  ( -3.000000000000000000, 6.858022075225178552E-15, 56.00000000000000000 ) ) ;
#129 = EDGE_CURVE ( 'NONE', #98, #234, #6, .T. ) ;
#130 = COORDINATED_UNIVERSAL_TIME_OFFSET ( 10, 0, .AHEAD. ) ;
#131 = VERTEX_POINT ( 'NONE', #101 ) ;
#132 = ADVANCED_FACE ( 'NONE', ( #78, #178 ), #44, .F. ) ;
#133 = VECTOR ( 'NONE', #23, 1000.000000000000000 ) ;
#134 = ORIENTED_EDGE ( 'NONE', *, *, #245, .T. ) ;
#135 = EDGE_LOOP ( 'NONE', ( #134, #171 ) ) ;
#136 = CC_DESIGN_PERSON_AND_ORGANIZATION_ASSIGNMENT ( #155, #73, ( #33 ) ) ;
#137 = CARTESIAN_POINT ( 'NONE',  ( -3.000000000000000000, 0.000000000000000000, -56.00000000000000000 ) ) ;
#138 = CARTESIAN_POINT ( 'NONE',  ( -3.000000000000000000, 0.000000000000000000, -35.00000000000000711 ) ) ;
#139 = EDGE_CURVE ( 'NONE', #17, #153, #68, .T. ) ;
#140 = CARTESIAN_POINT ( 'NONE',  ( 0.000000000000000000, 0.000000000000000000, 0.000000000000000000 ) ) ;
#141 = LINE ( 'NONE', #59, #164 ) ;
#142 = AXIS2_PLACEMENT_3D ( 'NONE', #52, #124, #218 ) ;
#143 = CARTESIAN_POINT ( 'NONE',  ( -3.000000000000000000, 0.000000000000000000, 0.000000000000000000 ) ) ;
#144 = EDGE_CURVE ( 'NONE', #210, #234, #3, .T. ) ;
#145 = APPROVAL_DATE_TIME ( #199, #39 ) ;
#146 = DIRECTION ( 'NONE',  ( 0.000000000000000000, 0.000000000000000000, -1.000000000000000000 ) ) ;
#147 =( GEOMETRIC_REPRESENTATION_CONTEXT ( 3 ) GLOBAL_UNCERTAINTY_ASSIGNED_CONTEXT ( ( #216 ) ) GLOBAL_UNIT_ASSIGNED_CONTEXT ( ( #107, #204, #246 ) ) REPRESENTATION_CONTEXT ( 'NONE', 'WORKASPACE' ) );
#148 = FACE_OUTER_BOUND ( 'NONE', #119, .T. ) ;
#149 = ADVANCED_BREP_SHAPE_REPRESENTATION ( 'OEM-65-JIS5K-3_REV_', ( #71, #243 ), #147 ) ;
#150 = APPROVAL_ROLE ( '' ) ;
#151 = CALENDAR_DATE ( 2025, 20, 11 ) ;
#152 = PERSON_AND_ORGANIZATION ( #224, #154 ) ;
#153 = VERTEX_POINT ( 'NONE', #26 ) ;
#154 = ORGANIZATION ( 'UNSPECIFIED', 'UNSPECIFIED', '' ) ;
#155 = PERSON_AND_ORGANIZATION ( #224, #154 ) ;
#156 = CARTESIAN_POINT ( 'NONE',  ( 0.000000000000000000, 0.000000000000000000, -35.00000000000000711 ) ) ;
#157 = DIRECTION ( 'NONE',  ( 0.000000000000000000, 0.000000000000000000, -1.000000000000000000 ) ) ;
#158 = CIRCLE ( 'NONE', #116, 35.00000000000000711 ) ;
#159 = CIRCLE ( 'NONE', #202, 35.00000000000000711 ) ;
#160 = ORIENTED_EDGE ( 'NONE', *, *, #9, .T. ) ;
#161 = LINE ( 'NONE', #137, #201 ) ;
#162 = DIRECTION ( 'NONE',  ( 1.000000000000000000, 0.000000000000000000, 0.000000000000000000 ) ) ;
#163 = APPROVAL_STATUS ( 'not_yet_approved' ) ;
#164 = VECTOR ( 'NONE', #215, 1000.000000000000000 ) ;
#165 = DIRECTION ( 'NONE',  ( 1.000000000000000000, 0.000000000000000000, 0.000000000000000000 ) ) ;
#166 = COORDINATED_UNIVERSAL_TIME_OFFSET ( 10, 0, .AHEAD. ) ;
#167 = DATE_AND_TIME ( #20, #219 ) ;
#168 = APPROVAL_STATUS ( 'not_yet_approved' ) ;
#169 = APPROVAL_ROLE ( '' ) ;
#170 = CC_DESIGN_PERSON_AND_ORGANIZATION_ASSIGNMENT ( #200, #244, ( #198 ) ) ;
#171 = ORIENTED_EDGE ( 'NONE', *, *, #95, .T. ) ;
#172 = DIRECTION ( 'NONE',  ( 1.000000000000000000, 0.000000000000000000, 0.000000000000000000 ) ) ;
#173 = DIRECTION ( 'NONE',  ( 0.000000000000000000, 0.000000000000000000, -1.000000000000000000 ) ) ;
#174 = CYLINDRICAL_SURFACE ( 'NONE', #195, 35.00000000000000711 ) ;
#175 = AXIS2_PLACEMENT_3D ( 'NONE', #143, #117, #47 ) ;
#176 = AXIS2_PLACEMENT_3D ( 'NONE', #220, #165, #30 ) ;
#177 = ORIENTED_EDGE ( 'NONE', *, *, #129, .T. ) ;
#178 = FACE_OUTER_BOUND ( 'NONE', #7, .T. ) ;
#179 = CC_DESIGN_PERSON_AND_ORGANIZATION_ASSIGNMENT ( #89, #35, ( #233 ) ) ;
#180 = CARTESIAN_POINT ( 'NONE',  ( 0.000000000000000000, 6.858022075225178552E-15, 56.00000000000000000 ) ) ;
#181 = DIRECTION ( 'NONE',  ( 1.000000000000000000, 0.000000000000000000, 0.000000000000000000 ) ) ;
#182 = EDGE_CURVE ( 'NONE', #58, #17, #4, .T. ) ;
#183 = DIRECTION ( 'NONE',  ( 0.000000000000000000, 0.000000000000000000, 1.000000000000000000 ) ) ;
#184 = MECHANICAL_CONTEXT ( 'NONE', #11, 'mechanical' ) ;
#185 = DATE_AND_TIME ( #151, #28 ) ;
#186 = ORIENTED_EDGE ( 'NONE', *, *, #235, .F. ) ;
#187 = DATE_AND_TIME ( #37, #36 ) ;
#188 = CIRCLE ( 'NONE', #176, 56.00000000000000000 ) ;
#189 = EDGE_CURVE ( 'NONE', #210, #90, #87, .T. ) ;
#190 = ADVANCED_FACE ( 'NONE', ( #67, #51 ), #31, .T. ) ;
#191 = DIRECTION ( 'NONE',  ( 1.000000000000000000, 0.000000000000000000, 0.000000000000000000 ) ) ;
#192 = PRODUCT_RELATED_PRODUCT_CATEGORY ( 'detail', '', ( #198 ) ) ;
#193 = DIRECTION ( 'NONE',  ( 1.000000000000000000, 0.000000000000000000, 0.000000000000000000 ) ) ;
#194 = DIRECTION ( 'NONE',  ( 0.000000000000000000, 0.000000000000000000, -1.000000000000000000 ) ) ;
#195 = AXIS2_PLACEMENT_3D ( 'NONE', #24, #162, #196 ) ;
#196 = DIRECTION ( 'NONE',  ( 0.000000000000000000, 0.000000000000000000, -1.000000000000000000 ) ) ;
#197 = CC_DESIGN_PERSON_AND_ORGANIZATION_ASSIGNMENT ( #208, #225, ( #81 ) ) ;
#198 = PRODUCT ( 'OEM-65-JIS5K-3_REV_', 'OEM-65-JIS5K-3_REV_', '', ( #184 ) ) ;
#199 = DATE_AND_TIME ( #239, #57 ) ;
#200 = PERSON_AND_ORGANIZATION ( #224, #154 ) ;
#201 = VECTOR ( 'NONE', #193, 1000.000000000000000 ) ;
#202 = AXIS2_PLACEMENT_3D ( 'NONE', #203, #14, #66 ) ;
#203 = CARTESIAN_POINT ( 'NONE',  ( -3.000000000000000000, 0.000000000000000000, 0.000000000000000000 ) ) ;
#204 =( NAMED_UNIT ( * ) PLANE_ANGLE_UNIT ( ) SI_UNIT ( $, .RADIAN. ) );
#205 = CYLINDRICAL_SURFACE ( 'NONE', #126, 56.00000000000000000 ) ;
#206 = DATE_TIME_ROLE ( 'classification_date' ) ;
#207 = PERSON_AND_ORGANIZATION_ROLE ( 'creator' ) ;
#208 = PERSON_AND_ORGANIZATION ( #224, #154 ) ;
#209 = APPROVAL_PERSON_ORGANIZATION ( #152, #123, #169 ) ;
#210 = VERTEX_POINT ( 'NONE', #128 ) ;
#211 = ORIENTED_EDGE ( 'NONE', *, *, #102, .T. ) ;
#212 = ORIENTED_EDGE ( 'NONE', *, *, #249, .F. ) ;
#213 = CARTESIAN_POINT ( 'NONE',  ( -3.000000000000000000, 0.000000000000000000, -35.00000000000000711 ) ) ;
#214 = EDGE_LOOP ( 'NONE', ( #72, #55 ) ) ;
#215 = DIRECTION ( 'NONE',  ( 1.000000000000000000, 0.000000000000000000, 0.000000000000000000 ) ) ;
#216 = UNCERTAINTY_MEASURE_WITH_UNIT (LENGTH_MEASURE( 1.000000000000000082E-05 ), #107, 'distance_accuracy_value', 'NONE');
#217 = CYLINDRICAL_SURFACE ( 'NONE', #113, 56.00000000000000000 ) ;
#218 = DIRECTION ( 'NONE',  ( 0.000000000000000000, 0.000000000000000000, -1.000000000000000000 ) ) ;
#219 = LOCAL_TIME ( 11, 56, 29.00000000000000000, #166 ) ;
#220 = CARTESIAN_POINT ( 'NONE',  ( -3.000000000000000000, 0.000000000000000000, 0.000000000000000000 ) ) ;
#221 = DESIGN_CONTEXT ( 'detailed design', #103, 'design' ) ;
#222 = COORDINATED_UNIVERSAL_TIME_OFFSET ( 10, 0, .AHEAD. ) ;
#223 = CC_DESIGN_PERSON_AND_ORGANIZATION_ASSIGNMENT ( #19, #207, ( #233 ) ) ;
#224 = PERSON ( 'UNSPECIFIED', 'UNSPECIFIED', 'UNSPECIFIED', ('UNSPECIFIED'), ('UNSPECIFIED'), ('UNSPECIFIED') ) ;
#225 = PERSON_AND_ORGANIZATION_ROLE ( 'creator' ) ;
#226 = ADVANCED_FACE ( 'NONE', ( #148 ), #205, .T. ) ;
#227 = PERSON_AND_ORGANIZATION ( #224, #154 ) ;
#228 = COORDINATED_UNIVERSAL_TIME_OFFSET ( 10, 0, .AHEAD. ) ;
#229 = AXIS2_PLACEMENT_3D ( 'NONE', #122, #106, #83 ) ;
#230 = ORIENTED_EDGE ( 'NONE', *, *, #95, .F. ) ;
#231 = ORIENTED_EDGE ( 'NONE', *, *, #9, .F. ) ;
#232 = ORIENTED_EDGE ( 'NONE', *, *, #189, .T. ) ;
#233 = PRODUCT_DEFINITION_FORMATION_WITH_SPECIFIED_SOURCE ( 'ANY', '', #198, .NOT_KNOWN. ) ;
#234 = VERTEX_POINT ( 'NONE', #180 ) ;
#235 = EDGE_CURVE ( 'NONE', #234, #98, #241, .T. ) ;
#236 = FACE_OUTER_BOUND ( 'NONE', #2, .T. ) ;
#237 = CARTESIAN_POINT ( 'NONE',  ( 0.000000000000000000, 0.000000000000000000, -56.00000000000000000 ) ) ;
#238 = ADVANCED_FACE ( 'NONE', ( #127 ), #217, .T. ) ;
#239 = CALENDAR_DATE ( 2025, 20, 11 ) ;
#240 = APPLICATION_PROTOCOL_DEFINITION ( 'international standard', 'config_control_design', 1994, #103 ) ;
#241 = CIRCLE ( 'NONE', #142, 56.00000000000000000 ) ;
#242 = AXIS2_PLACEMENT_3D ( 'NONE', #96, #172, #194 ) ;
#243 = AXIS2_PLACEMENT_3D ( 'NONE', #108, #183, #181 ) ;
#244 = PERSON_AND_ORGANIZATION_ROLE ( 'design_owner' ) ;
#245 = EDGE_CURVE ( 'NONE', #58, #131, #159, .T. ) ;
#246 =( NAMED_UNIT ( * ) SI_UNIT ( $, .STERADIAN. ) SOLID_ANGLE_UNIT ( ) );
#247 = EDGE_LOOP ( 'NONE', ( #177, #21 ) ) ;
#248 = DATE_TIME_ROLE ( 'creation_date' ) ;
#249 = EDGE_CURVE ( 'NONE', #90, #210, #188, .T. ) ;
ENDSEC;
END-ISO-10303-21;
