ISO-10303-21;
HEADER;
FILE_DESCRIPTION (( 'STEP AP203' ),
    '1' );
FILE_NAME ('OEM-80-LR-40-316L_REV_.step',
    '2026-03-04T02:53:08',
    ( '' ),
    ( '' ),
    'SwSTEP 2.0',
    'SolidWorks 2025',
    '' );
FILE_SCHEMA (( 'CONFIG_CONTROL_DESIGN' ));
ENDSEC;

DATA;
#1 = PERSON_AND_ORGANIZATION ( #59, #108 ) ;
#2 = EDGE_CURVE ( 'NONE', #213, #118, #130, .T. ) ;
#3 = APPLICATION_PROTOCOL_DEFINITION ( 'international standard', 'config_control_design', 1994, #147 ) ;
#4 = AXIS2_PLACEMENT_3D ( 'NONE', #86, #182, #124 ) ;
#5 = ORIENTED_EDGE ( 'NONE', *, *, #116, .T. ) ;
#6 = EDGE_LOOP ( 'NONE', ( #63, #7 ) ) ;
#7 = ORIENTED_EDGE ( 'NONE', *, *, #61, .F. ) ;
#8 = CC_DESIGN_APPROVAL ( #148, ( #227 ) ) ;
#9 = ADVANCED_FACE ( 'NONE', ( #202, #68 ), #247, .F. ) ;
#10 = ORIENTED_EDGE ( 'NONE', *, *, #128, .T. ) ;
#11 = CARTESIAN_POINT ( 'NONE',  ( -152.9600000000000080, 4.848612974905381501E-13, 0.000000000000000000 ) ) ;
#12 = AXIS2_PLACEMENT_3D ( 'NONE', #74, #253, #250 ) ;
#13 = CARTESIAN_POINT ( 'NONE',  ( -158.4500000000000171, 5.022638113714421110E-13, 0.000000000000000000 ) ) ;
#14 = DIRECTION ( 'NONE',  ( 0.000000000000000000, 0.000000000000000000, 1.000000000000000000 ) ) ;
#15 = EDGE_CURVE ( 'NONE', #118, #213, #248, .T. ) ;
#16 = CALENDAR_DATE ( 2026, 4, 3 ) ;
#17 = CARTESIAN_POINT ( 'NONE',  ( 0.000000000000000000, 75.03999999999999204, -4.771223929478089166E-15 ) ) ;
#18 = CIRCLE ( 'NONE', #160, 38.96000000000000796 ) ;
#19 = APPROVAL_DATE_TIME ( #153, #234 ) ;
#20 = DIRECTION ( 'NONE',  ( 0.000000000000000000, 0.000000000000000000, 1.000000000000000000 ) ) ;
#21 = DIRECTION ( 'NONE',  ( 0.000000000000000000, 0.000000000000000000, 1.000000000000000000 ) ) ;
#22 = CC_DESIGN_DATE_AND_TIME_ASSIGNMENT ( #196, #66, ( #146 ) ) ;
#23 = AXIS2_PLACEMENT_3D ( 'NONE', #110, #14, #76 ) ;
#24 = ORIENTED_EDGE ( 'NONE', *, *, #208, .T. ) ;
#25 = VERTEX_POINT ( 'NONE', #13 ) ;
#26 = CC_DESIGN_DATE_AND_TIME_ASSIGNMENT ( #54, #230, ( #158 ) ) ;
#27 = AXIS2_PLACEMENT_3D ( 'NONE', #46, #172, #150 ) ;
#28 = CARTESIAN_POINT ( 'NONE',  ( 0.000000000000000000, 114.0000000000000000, 0.000000000000000000 ) ) ;
#29 = COORDINATED_UNIVERSAL_TIME_OFFSET ( 10, 0, .AHEAD. ) ;
#30 = CARTESIAN_POINT ( 'NONE',  ( 0.000000000000000000, 0.000000000000000000, 0.000000000000000000 ) ) ;
#31 = ORIENTED_EDGE ( 'NONE', *, *, #61, .T. ) ;
#32 = LOCAL_TIME ( 13, 53, 8.000000000000000000, #169 ) ;
#33 = ADVANCED_FACE ( 'NONE', ( #145, #181 ), #106, .T. ) ;
#34 = CARTESIAN_POINT ( 'NONE',  ( 0.000000000000000000, 0.000000000000000000, -4.771223929478089166E-15 ) ) ;
#35 = CC_DESIGN_PERSON_AND_ORGANIZATION_ASSIGNMENT ( #102, #237, ( #146 ) ) ;
#36 = DIRECTION ( 'NONE',  ( 0.000000000000000000, 0.000000000000000000, 1.000000000000000000 ) ) ;
#37 = CARTESIAN_POINT ( 'NONE',  ( 0.000000000000000000, 0.000000000000000000, 0.000000000000000000 ) ) ;
#38 = EDGE_CURVE ( 'NONE', #81, #42, #155, .T. ) ;
#39 = FACE_OUTER_BOUND ( 'NONE', #177, .T. ) ;
#40 = ORIENTED_EDGE ( 'NONE', *, *, #120, .T. ) ;
#41 = APPLICATION_CONTEXT ( 'configuration controlled 3d designs of mechanical parts and assemblies' ) ;
#42 = VERTEX_POINT ( 'NONE', #11 ) ;
#43 = CALENDAR_DATE ( 2026, 4, 3 ) ;
#44 = DIRECTION ( 'NONE',  ( 0.000000000000000000, 0.000000000000000000, 1.000000000000000000 ) ) ;
#45 = CC_DESIGN_PERSON_AND_ORGANIZATION_ASSIGNMENT ( #189, #57, ( #162 ) ) ;
#46 = CARTESIAN_POINT ( 'NONE',  ( -114.0000000000000000, 3.613636762154899974E-13, 0.000000000000000000 ) ) ;
#47 = DIRECTION ( 'NONE',  ( 1.000000000000000000, 0.000000000000000000, 0.000000000000000000 ) ) ;
#48 = EDGE_CURVE ( 'NONE', #81, #121, #18, .T. ) ;
#49 = CIRCLE ( 'NONE', #244, 38.96000000000000796 ) ;
#50 = LOCAL_TIME ( 13, 53, 8.000000000000000000, #29 ) ;
#51 = CC_DESIGN_PERSON_AND_ORGANIZATION_ASSIGNMENT ( #89, #171, ( #227 ) ) ;
#52 = CARTESIAN_POINT ( 'NONE',  ( 0.000000000000000000, 0.000000000000000000, -5.443555022209986486E-15 ) ) ;
#53 = AXIS2_PLACEMENT_3D ( 'NONE', #190, #131, #117 ) ;
#54 = DATE_AND_TIME ( #186, #32 ) ;
#55 = CARTESIAN_POINT ( 'NONE',  ( -75.03999999999999204, 2.378660549404417942E-13, -4.771223929478089166E-15 ) ) ;
#56 = ADVANCED_FACE ( 'NONE', ( #243 ), #97, .T. ) ;
#57 = PERSON_AND_ORGANIZATION_ROLE ( 'design_owner' ) ;
#58 = DIRECTION ( 'NONE',  ( 0.000000000000000000, 0.000000000000000000, -1.000000000000000000 ) ) ;
#59 = PERSON ( 'UNSPECIFIED', 'UNSPECIFIED', 'UNSPECIFIED', ('UNSPECIFIED'), ('UNSPECIFIED'), ('UNSPECIFIED') ) ;
#60 = TOROIDAL_SURFACE ( 'NONE', #188, 114.0000000000000000, 38.96000000000000796 ) ;
#61 = EDGE_CURVE ( 'NONE', #25, #238, #240, .T. ) ;
#62 = APPROVAL_STATUS ( 'not_yet_approved' ) ;
#63 = ORIENTED_EDGE ( 'NONE', *, *, #75, .F. ) ;
#64 = AXIS2_PLACEMENT_3D ( 'NONE', #34, #21, #231 ) ;
#65 = EDGE_LOOP ( 'NONE', ( #101, #236 ) ) ;
#66 = DATE_TIME_ROLE ( 'classification_date' ) ;
#67 = EDGE_LOOP ( 'NONE', ( #137, #161, #40, #107 ) ) ;
#68 = FACE_OUTER_BOUND ( 'NONE', #6, .T. ) ;
#69 = DIRECTION ( 'NONE',  ( 3.169856808907806676E-15, 1.000000000000000000, 0.000000000000000000 ) ) ;
#70 = DIRECTION ( 'NONE',  ( -3.169856808907806676E-15, -1.000000000000000000, -0.000000000000000000 ) ) ;
#71 = APPLICATION_PROTOCOL_DEFINITION ( 'international standard', 'config_control_design', 1994, #41 ) ;
#72 = CIRCLE ( 'NONE', #87, 38.96000000000000796 ) ;
#73 = FACE_OUTER_BOUND ( 'NONE', #176, .T. ) ;
#74 = CARTESIAN_POINT ( 'NONE',  ( -114.0000000000000000, 3.613636762154899974E-13, 0.000000000000000000 ) ) ;
#75 = EDGE_CURVE ( 'NONE', #238, #25, #159, .T. ) ;
#76 = DIRECTION ( 'NONE',  ( 1.000000000000000000, 0.000000000000000000, 0.000000000000000000 ) ) ;
#77 = ORIENTED_EDGE ( 'NONE', *, *, #38, .F. ) ;
#78 = SECURITY_CLASSIFICATION_LEVEL ( 'unclassified' ) ;
#79 = ORIENTED_EDGE ( 'NONE', *, *, #192, .T. ) ;
#80 = MANIFOLD_SOLID_BREP ( 'Sweep1', #103 ) ;
#81 = VERTEX_POINT ( 'NONE', #229 ) ;
#82 = ORIENTED_EDGE ( 'NONE', *, *, #208, .F. ) ;
#83 = DIRECTION ( 'NONE',  ( -1.000000000000000000, -0.000000000000000000, -0.000000000000000000 ) ) ;
#84 = DIRECTION ( 'NONE',  ( 0.000000000000000000, 0.000000000000000000, 1.000000000000000000 ) ) ;
#85 = CIRCLE ( 'NONE', #64, 75.03999999999999204 ) ;
#86 = CARTESIAN_POINT ( 'NONE',  ( 0.000000000000000000, 114.0000000000000000, 0.000000000000000000 ) ) ;
#87 = AXIS2_PLACEMENT_3D ( 'NONE', #109, #70, #183 ) ;
#88 = ADVANCED_FACE ( 'NONE', ( #90 ), #60, .F. ) ;
#89 = PERSON_AND_ORGANIZATION ( #59, #108 ) ;
#90 = FACE_OUTER_BOUND ( 'NONE', #67, .T. ) ;
#91 = LOCAL_TIME ( 13, 53, 8.000000000000000000, #228 ) ;
#92 = APPROVAL_PERSON_ORGANIZATION ( #217, #184, #100 ) ;
#93 = DATE_AND_TIME ( #16, #91 ) ;
#94 = DIRECTION ( 'NONE',  ( 1.000000000000000000, 0.000000000000000000, 0.000000000000000000 ) ) ;
#95 =( LENGTH_UNIT ( ) NAMED_UNIT ( * ) SI_UNIT ( .MILLI., .METRE. ) );
#96 = EDGE_LOOP ( 'NONE', ( #24, #99 ) ) ;
#97 = TOROIDAL_SURFACE ( 'NONE', #114, 114.0000000000000000, 44.45000000000000995 ) ;
#98 = PRODUCT_RELATED_PRODUCT_CATEGORY ( 'detail', '', ( #162 ) ) ;
#99 = ORIENTED_EDGE ( 'NONE', *, *, #48, .T. ) ;
#100 = APPROVAL_ROLE ( '' ) ;
#101 = ORIENTED_EDGE ( 'NONE', *, *, #15, .T. ) ;
#102 = PERSON_AND_ORGANIZATION ( #59, #108 ) ;
#103 = CLOSED_SHELL ( 'NONE', ( #88, #105, #232, #9, #33, #56 ) ) ;
#104 = ORIENTED_EDGE ( 'NONE', *, *, #120, .F. ) ;
#105 = ADVANCED_FACE ( 'NONE', ( #39 ), #219, .T. ) ;
#106 = PLANE ( 'NONE',  #178 ) ;
#107 = ORIENTED_EDGE ( 'NONE', *, *, #192, .F. ) ;
#108 = ORGANIZATION ( 'UNSPECIFIED', 'UNSPECIFIED', '' ) ;
#109 = CARTESIAN_POINT ( 'NONE',  ( -114.0000000000000000, 3.613636762154899974E-13, 0.000000000000000000 ) ) ;
#110 = CARTESIAN_POINT ( 'NONE',  ( 0.000000000000000000, 0.000000000000000000, 0.000000000000000000 ) ) ;
#111 = PERSON_AND_ORGANIZATION_ROLE ( 'creator' ) ;
#112 = DIRECTION ( 'NONE',  ( 0.000000000000000000, 0.000000000000000000, 1.000000000000000000 ) ) ;
#113 = DIRECTION ( 'NONE',  ( 1.000000000000000000, 0.000000000000000000, 0.000000000000000000 ) ) ;
#114 = AXIS2_PLACEMENT_3D ( 'NONE', #30, #84, #166 ) ;
#115 = COORDINATED_UNIVERSAL_TIME_OFFSET ( 10, 0, .AHEAD. ) ;
#116 = EDGE_CURVE ( 'NONE', #213, #25, #142, .T. ) ;
#117 = DIRECTION ( 'NONE',  ( 1.000000000000000000, 0.000000000000000000, 0.000000000000000000 ) ) ;
#118 = VERTEX_POINT ( 'NONE', #206 ) ;
#119 = AXIS2_PLACEMENT_3D ( 'NONE', #141, #44, #200 ) ;
#120 = EDGE_CURVE ( 'NONE', #42, #218, #168, .T. ) ;
#121 = VERTEX_POINT ( 'NONE', #17 ) ;
#122 = APPROVAL_PERSON_ORGANIZATION ( #149, #148, #214 ) ;
#123 = CARTESIAN_POINT ( 'NONE',  ( -114.0000000000000000, 3.613636762154899974E-13, 0.000000000000000000 ) ) ;
#124 = DIRECTION ( 'NONE',  ( 0.000000000000000000, 0.000000000000000000, -1.000000000000000000 ) ) ;
#125 = ADVANCED_BREP_SHAPE_REPRESENTATION ( 'OEM-80-LR-40-316L_REV_', ( #80, #216 ), #170 ) ;
#126 = DIRECTION ( 'NONE',  ( 0.000000000000000000, 0.000000000000000000, -1.000000000000000000 ) ) ;
#127 = UNCERTAINTY_MEASURE_WITH_UNIT (LENGTH_MEASURE( 1.000000000000000082E-05 ), #95, 'distance_accuracy_value', 'NONE');
#128 = EDGE_CURVE ( 'NONE', #218, #42, #72, .T. ) ;
#129 =( NAMED_UNIT ( * ) SI_UNIT ( $, .STERADIAN. ) SOLID_ANGLE_UNIT ( ) );
#130 = CIRCLE ( 'NONE', #135, 44.45000000000000995 ) ;
#131 = DIRECTION ( 'NONE',  ( 0.000000000000000000, 0.000000000000000000, 1.000000000000000000 ) ) ;
#132 = DIRECTION ( 'NONE',  ( 1.000000000000000000, 0.000000000000000000, 0.000000000000000000 ) ) ;
#133 = MECHANICAL_CONTEXT ( 'NONE', #41, 'mechanical' ) ;
#134 = DIRECTION ( 'NONE',  ( -3.169856808907806676E-15, -1.000000000000000000, -0.000000000000000000 ) ) ;
#135 = AXIS2_PLACEMENT_3D ( 'NONE', #222, #47, #167 ) ;
#136 = PERSON_AND_ORGANIZATION ( #59, #108 ) ;
#137 = ORIENTED_EDGE ( 'NONE', *, *, #48, .F. ) ;
#138 = TOROIDAL_SURFACE ( 'NONE', #23, 114.0000000000000000, 38.96000000000000796 ) ;
#139 = SHAPE_DEFINITION_REPRESENTATION ( #195, #125 ) ;
#140 = DESIGN_CONTEXT ( 'detailed design', #147, 'design' ) ;
#141 = CARTESIAN_POINT ( 'NONE',  ( 0.000000000000000000, 0.000000000000000000, 0.000000000000000000 ) ) ;
#142 = CIRCLE ( 'NONE', #203, 158.4500000000000171 ) ;
#143 = ORIENTED_EDGE ( 'NONE', *, *, #249, .T. ) ;
#144 = EDGE_LOOP ( 'NONE', ( #156, #215, #143, #246 ) ) ;
#145 = FACE_BOUND ( 'NONE', #96, .T. ) ;
#146 = SECURITY_CLASSIFICATION ( '', '', #78 ) ;
#147 = APPLICATION_CONTEXT ( 'configuration controlled 3d designs of mechanical parts and assemblies' ) ;
#148 = APPROVAL ( #62, 'UNSPECIFIED' ) ;
#149 = PERSON_AND_ORGANIZATION ( #59, #108 ) ;
#150 = DIRECTION ( 'NONE',  ( 0.000000000000000000, 0.000000000000000000, -1.000000000000000000 ) ) ;
#151 = APPROVAL_STATUS ( 'not_yet_approved' ) ;
#152 = CARTESIAN_POINT ( 'NONE',  ( 0.000000000000000000, 114.0000000000000000, 0.000000000000000000 ) ) ;
#153 = DATE_AND_TIME ( #225, #210 ) ;
#154 = DIRECTION ( 'NONE',  ( -1.000000000000000000, -0.000000000000000000, -0.000000000000000000 ) ) ;
#155 = CIRCLE ( 'NONE', #119, 152.9600000000000080 ) ;
#156 = ORIENTED_EDGE ( 'NONE', *, *, #116, .F. ) ;
#157 = PERSON_AND_ORGANIZATION_ROLE ( 'design_supplier' ) ;
#158 = PRODUCT_DEFINITION ( 'UNKNOWN', '', #227, #140 ) ;
#159 = CIRCLE ( 'NONE', #12, 44.45000000000000995 ) ;
#160 = AXIS2_PLACEMENT_3D ( 'NONE', #28, #83, #164 ) ;
#161 = ORIENTED_EDGE ( 'NONE', *, *, #38, .T. ) ;
#162 = PRODUCT ( 'OEM-80-LR-40-316L_REV_', 'OEM-80-LR-40-316L_REV_', '', ( #133 ) ) ;
#163 = COORDINATED_UNIVERSAL_TIME_OFFSET ( 10, 0, .AHEAD. ) ;
#164 = DIRECTION ( 'NONE',  ( 0.000000000000000000, 0.000000000000000000, -1.000000000000000000 ) ) ;
#165 = CIRCLE ( 'NONE', #194, 69.54999999999999716 ) ;
#166 = DIRECTION ( 'NONE',  ( 1.000000000000000000, 0.000000000000000000, 0.000000000000000000 ) ) ;
#167 = DIRECTION ( 'NONE',  ( 0.000000000000000000, 0.000000000000000000, -1.000000000000000000 ) ) ;
#168 = CIRCLE ( 'NONE', #199, 38.96000000000000796 ) ;
#169 = COORDINATED_UNIVERSAL_TIME_OFFSET ( 10, 0, .AHEAD. ) ;
#170 =( GEOMETRIC_REPRESENTATION_CONTEXT ( 3 ) GLOBAL_UNCERTAINTY_ASSIGNED_CONTEXT ( ( #127 ) ) GLOBAL_UNIT_ASSIGNED_CONTEXT ( ( #95, #174, #129 ) ) REPRESENTATION_CONTEXT ( 'NONE', 'WORKASPACE' ) );
#171 = PERSON_AND_ORGANIZATION_ROLE ( 'creator' ) ;
#172 = DIRECTION ( 'NONE',  ( 3.169856808907806676E-15, 1.000000000000000000, 0.000000000000000000 ) ) ;
#173 = CARTESIAN_POINT ( 'NONE',  ( -114.0000000000000000, 3.613636762154899974E-13, 0.000000000000000000 ) ) ;
#174 =( NAMED_UNIT ( * ) PLANE_ANGLE_UNIT ( ) SI_UNIT ( $, .RADIAN. ) );
#175 = CC_DESIGN_PERSON_AND_ORGANIZATION_ASSIGNMENT ( #1, #111, ( #158 ) ) ;
#176 = EDGE_LOOP ( 'NONE', ( #77, #82, #79, #10 ) ) ;
#177 = EDGE_LOOP ( 'NONE', ( #201, #5, #31, #242 ) ) ;
#178 = AXIS2_PLACEMENT_3D ( 'NONE', #223, #221, #179 ) ;
#179 = DIRECTION ( 'NONE',  ( 0.000000000000000000, 0.000000000000000000, -1.000000000000000000 ) ) ;
#180 = DATE_AND_TIME ( #239, #245 ) ;
#181 = FACE_OUTER_BOUND ( 'NONE', #65, .T. ) ;
#182 = DIRECTION ( 'NONE',  ( 1.000000000000000000, 0.000000000000000000, 0.000000000000000000 ) ) ;
#183 = DIRECTION ( 'NONE',  ( 0.000000000000000000, 0.000000000000000000, -1.000000000000000000 ) ) ;
#184 = APPROVAL ( #198, 'UNSPECIFIED' ) ;
#185 = DIRECTION ( 'NONE',  ( 1.000000000000000000, 0.000000000000000000, 0.000000000000000000 ) ) ;
#186 = CALENDAR_DATE ( 2026, 4, 3 ) ;
#187 = DIRECTION ( 'NONE',  ( 0.000000000000000000, 0.000000000000000000, -1.000000000000000000 ) ) ;
#188 = AXIS2_PLACEMENT_3D ( 'NONE', #37, #36, #132 ) ;
#189 = PERSON_AND_ORGANIZATION ( #59, #108 ) ;
#190 = CARTESIAN_POINT ( 'NONE',  ( 0.000000000000000000, 0.000000000000000000, 0.000000000000000000 ) ) ;
#191 = CARTESIAN_POINT ( 'NONE',  ( 0.000000000000000000, 0.000000000000000000, 0.000000000000000000 ) ) ;
#192 = EDGE_CURVE ( 'NONE', #121, #218, #85, .T. ) ;
#193 = ORIENTED_EDGE ( 'NONE', *, *, #128, .F. ) ;
#194 = AXIS2_PLACEMENT_3D ( 'NONE', #52, #233, #185 ) ;
#195 = PRODUCT_DEFINITION_SHAPE ( 'NONE', 'NONE',  #158 ) ;
#196 = DATE_AND_TIME ( #43, #50 ) ;
#197 = EDGE_LOOP ( 'NONE', ( #193, #104 ) ) ;
#198 = APPROVAL_STATUS ( 'not_yet_approved' ) ;
#199 = AXIS2_PLACEMENT_3D ( 'NONE', #173, #134, #187 ) ;
#200 = DIRECTION ( 'NONE',  ( 1.000000000000000000, 0.000000000000000000, 0.000000000000000000 ) ) ;
#201 = ORIENTED_EDGE ( 'NONE', *, *, #2, .F. ) ;
#202 = FACE_BOUND ( 'NONE', #197, .T. ) ;
#203 = AXIS2_PLACEMENT_3D ( 'NONE', #191, #112, #113 ) ;
#204 = CC_DESIGN_PERSON_AND_ORGANIZATION_ASSIGNMENT ( #209, #157, ( #227 ) ) ;
#205 = AXIS2_PLACEMENT_3D ( 'NONE', #123, #69, #126 ) ;
#206 = CARTESIAN_POINT ( 'NONE',  ( 0.000000000000000000, 69.54999999999999716, -5.443555022209988064E-15 ) ) ;
#207 = CARTESIAN_POINT ( 'NONE',  ( 0.000000000000000000, 0.000000000000000000, 0.000000000000000000 ) ) ;
#208 = EDGE_CURVE ( 'NONE', #121, #81, #49, .T. ) ;
#209 = PERSON_AND_ORGANIZATION ( #59, #108 ) ;
#210 = LOCAL_TIME ( 13, 53, 8.000000000000000000, #115 ) ;
#211 = APPROVAL_ROLE ( '' ) ;
#212 = CARTESIAN_POINT ( 'NONE',  ( 0.000000000000000000, 158.4500000000000171, 0.000000000000000000 ) ) ;
#213 = VERTEX_POINT ( 'NONE', #212 ) ;
#214 = APPROVAL_ROLE ( '' ) ;
#215 = ORIENTED_EDGE ( 'NONE', *, *, #15, .F. ) ;
#216 = AXIS2_PLACEMENT_3D ( 'NONE', #207, #20, #94 ) ;
#217 = PERSON_AND_ORGANIZATION ( #59, #108 ) ;
#218 = VERTEX_POINT ( 'NONE', #55 ) ;
#219 = TOROIDAL_SURFACE ( 'NONE', #53, 114.0000000000000000, 44.45000000000000995 ) ;
#220 = CC_DESIGN_APPROVAL ( #184, ( #146 ) ) ;
#221 = DIRECTION ( 'NONE',  ( 1.000000000000000000, 0.000000000000000000, 0.000000000000000000 ) ) ;
#222 = CARTESIAN_POINT ( 'NONE',  ( 0.000000000000000000, 114.0000000000000000, 0.000000000000000000 ) ) ;
#223 = CARTESIAN_POINT ( 'NONE',  ( 0.000000000000000000, 114.0000000000000000, 0.000000000000000000 ) ) ;
#224 = APPROVAL_PERSON_ORGANIZATION ( #136, #234, #211 ) ;
#225 = CALENDAR_DATE ( 2026, 4, 3 ) ;
#226 = CARTESIAN_POINT ( 'NONE',  ( -69.54999999999999716, 2.204635410595379594E-13, -5.443555022209988064E-15 ) ) ;
#227 = PRODUCT_DEFINITION_FORMATION_WITH_SPECIFIED_SOURCE ( 'ANY', '', #162, .NOT_KNOWN. ) ;
#228 = COORDINATED_UNIVERSAL_TIME_OFFSET ( 10, 0, .AHEAD. ) ;
#229 = CARTESIAN_POINT ( 'NONE',  ( 0.000000000000000000, 152.9600000000000080, 0.000000000000000000 ) ) ;
#230 = DATE_TIME_ROLE ( 'creation_date' ) ;
#231 = DIRECTION ( 'NONE',  ( 1.000000000000000000, 0.000000000000000000, 0.000000000000000000 ) ) ;
#232 = ADVANCED_FACE ( 'NONE', ( #73 ), #138, .F. ) ;
#233 = DIRECTION ( 'NONE',  ( 0.000000000000000000, 0.000000000000000000, 1.000000000000000000 ) ) ;
#234 = APPROVAL ( #151, 'UNSPECIFIED' ) ;
#235 = APPROVAL_DATE_TIME ( #180, #184 ) ;
#236 = ORIENTED_EDGE ( 'NONE', *, *, #2, .T. ) ;
#237 = PERSON_AND_ORGANIZATION_ROLE ( 'classification_officer' ) ;
#238 = VERTEX_POINT ( 'NONE', #226 ) ;
#239 = CALENDAR_DATE ( 2026, 4, 3 ) ;
#240 = CIRCLE ( 'NONE', #27, 44.45000000000000995 ) ;
#241 = CC_DESIGN_SECURITY_CLASSIFICATION ( #146, ( #227 ) ) ;
#242 = ORIENTED_EDGE ( 'NONE', *, *, #249, .F. ) ;
#243 = FACE_OUTER_BOUND ( 'NONE', #144, .T. ) ;
#244 = AXIS2_PLACEMENT_3D ( 'NONE', #152, #154, #58 ) ;
#245 = LOCAL_TIME ( 13, 53, 8.000000000000000000, #163 ) ;
#246 = ORIENTED_EDGE ( 'NONE', *, *, #75, .T. ) ;
#247 = PLANE ( 'NONE',  #205 ) ;
#248 = CIRCLE ( 'NONE', #4, 44.45000000000000995 ) ;
#249 = EDGE_CURVE ( 'NONE', #118, #238, #165, .T. ) ;
#250 = DIRECTION ( 'NONE',  ( 0.000000000000000000, 0.000000000000000000, -1.000000000000000000 ) ) ;
#251 = CC_DESIGN_APPROVAL ( #234, ( #158 ) ) ;
#252 = APPROVAL_DATE_TIME ( #93, #148 ) ;
#253 = DIRECTION ( 'NONE',  ( 3.169856808907806676E-15, 1.000000000000000000, 0.000000000000000000 ) ) ;
ENDSEC;
END-ISO-10303-21;
