ISO-10303-21;
HEADER;
FILE_DESCRIPTION (( 'STEP AP203' ),
    '1' );
FILE_NAME ('OEM-80NB-40-C_REV_.step',
    '2026-03-04T02:52:54',
    ( '' ),
    ( '' ),
    'SwSTEP 2.0',
    'SolidWorks 2025',
    '' );
FILE_SCHEMA (( 'CONFIG_CONTROL_DESIGN' ));
ENDSEC;

DATA;
#1 = DIRECTION ( 'NONE',  ( -3.121648703708940369E-17, -1.000000000000000000, -0.000000000000000000 ) ) ;
#2 = VERTEX_POINT ( 'NONE', #275 ) ;
#3 = FACE_OUTER_BOUND ( 'NONE', #11, .T. ) ;
#4 = AXIS2_PLACEMENT_3D ( 'NONE', #363, #303, #22 ) ;
#5 = DIRECTION ( 'NONE',  ( 1.000000000000000000, -3.121648703708940369E-17, 0.000000000000000000 ) ) ;
#6 = ORIENTED_EDGE ( 'NONE', *, *, #159, .T. ) ;
#7 = LINE ( 'NONE', #135, #409 ) ;
#8 = ORIENTED_EDGE ( 'NONE', *, *, #128, .F. ) ;
#9 = EDGE_CURVE ( 'NONE', #410, #357, #227, .T. ) ;
#10 = EDGE_LOOP ( 'NONE', ( #163, #316, #132 ) ) ;
#11 = EDGE_LOOP ( 'NONE', ( #169, #136, #15 ) ) ;
#12 = VECTOR ( 'NONE', #337, 1000.000000000000000 ) ;
#13 = CIRCLE ( 'NONE', #385, 44.44999999999999574 ) ;
#14 = DIRECTION ( 'NONE',  ( -3.121648703708940369E-17, -1.000000000000000000, -0.000000000000000000 ) ) ;
#15 = ORIENTED_EDGE ( 'NONE', *, *, #122, .F. ) ;
#16 = CARTESIAN_POINT ( 'NONE',  ( 0.000000000000000000, 0.000000000000000000, 0.000000000000000000 ) ) ;
#17 = CYLINDRICAL_SURFACE ( 'NONE', #181, 44.45000000000000284 ) ;
#18 = VERTEX_POINT ( 'NONE', #398 ) ;
#19 = DIRECTION ( 'NONE',  ( 0.000000000000000000, 0.000000000000000000, 1.000000000000000000 ) ) ;
#20 = EDGE_CURVE ( 'NONE', #185, #325, #407, .T. ) ;
#21 = AXIS2_PLACEMENT_3D ( 'NONE', #358, #19, #299 ) ;
#22 = DIRECTION ( 'NONE',  ( 1.000000000000000000, -3.121648703708940986E-17, 0.000000000000000000 ) ) ;
#23 = CARTESIAN_POINT ( 'NONE',  ( 6.245698675651501233E-15, -51.00000000000000000, 0.000000000000000000 ) ) ;
#24 = EDGE_CURVE ( 'NONE', #61, #117, #332, .T. ) ;
#25 = ADVANCED_FACE ( 'NONE', ( #226 ), #192, .T. ) ;
#26 = AXIS2_PLACEMENT_3D ( 'NONE', #264, #213, #42 ) ;
#27 = ORIENTED_EDGE ( 'NONE', *, *, #224, .F. ) ;
#28 = PERSON_AND_ORGANIZATION ( #29, #338 ) ;
#29 = PERSON ( 'UNSPECIFIED', 'UNSPECIFIED', 'UNSPECIFIED', ('UNSPECIFIED'), ('UNSPECIFIED'), ('UNSPECIFIED') ) ;
#30 = EDGE_LOOP ( 'NONE', ( #294, #215, #341, #67 ) ) ;
#31 = APPLICATION_PROTOCOL_DEFINITION ( 'international standard', 'config_control_design', 1994, #284 ) ;
#32 = CIRCLE ( 'NONE', #93, 38.45000000000000995 ) ;
#33 = CARTESIAN_POINT ( 'NONE',  ( 28.62439024390243958, 40.63320513419129298, 0.000000000000000000 ) ) ;
#34 = ADVANCED_FACE ( 'NONE', ( #89, #87 ), #249, .T. ) ;
#35 = DIRECTION ( 'NONE',  ( -3.121648703708940369E-17, -1.000000000000000000, -0.000000000000000000 ) ) ;
#36 = PRODUCT_DEFINITION_SHAPE ( 'NONE', 'NONE',  #279 ) ;
#37 = AXIS2_PLACEMENT_3D ( 'NONE', #70, #353, #212 ) ;
#38 = CC_DESIGN_APPROVAL ( #314, ( #69 ) ) ;
#39 = ORIENTED_EDGE ( 'NONE', *, *, #395, .F. ) ;
#40 = DIRECTION ( 'NONE',  ( 1.000000000000000000, 0.000000000000000000, 0.000000000000000000 ) ) ;
#41 = CARTESIAN_POINT ( 'NONE',  ( 6.245698675651501233E-15, -51.00000000000000000, 0.000000000000000000 ) ) ;
#42 = DIRECTION ( 'NONE',  ( 1.000000000000000000, 0.000000000000000000, -1.224646799147353207E-16 ) ) ;
#43 = ORIENTED_EDGE ( 'NONE', *, *, #285, .F. ) ;
#44 = VECTOR ( 'NONE', #260, 1000.000000000000000 ) ;
#45 = EDGE_LOOP ( 'NONE', ( #301, #6, #104, #133 ) ) ;
#46 = ORIENTED_EDGE ( 'NONE', *, *, #251, .F. ) ;
#47 = FACE_OUTER_BOUND ( 'NONE', #267, .T. ) ;
#48 = VERTEX_POINT ( 'NONE', #349 ) ;
#49 = SPHERICAL_SURFACE ( 'NONE', #21, 95.99999999999998579 ) ;
#50 = VERTEX_POINT ( 'NONE', #66 ) ;
#51 = CC_DESIGN_PERSON_AND_ORGANIZATION_ASSIGNMENT ( #124, #91, ( #279 ) ) ;
#52 = DIRECTION ( 'NONE',  ( 0.000000000000000000, 0.000000000000000000, 1.000000000000000000 ) ) ;
#53 = VECTOR ( 'NONE', #217, 1000.000000000000000 ) ;
#54 = CARTESIAN_POINT ( 'NONE',  ( 0.000000000000000000, 0.000000000000000000, 0.000000000000000000 ) ) ;
#55 = CALENDAR_DATE ( 2026, 4, 3 ) ;
#56 = ORIENTED_EDGE ( 'NONE', *, *, #157, .T. ) ;
#57 = DATE_AND_TIME ( #406, #156 ) ;
#58 = LOCAL_TIME ( 13, 52, 54.00000000000000000, #342 ) ;
#59 = PERSON_AND_ORGANIZATION ( #29, #338 ) ;
#60 = CALENDAR_DATE ( 2026, 4, 3 ) ;
#61 = VERTEX_POINT ( 'NONE', #162 ) ;
#62 = CARTESIAN_POINT ( 'NONE',  ( 1.268425921346877177E-15, 40.63320513419129298, 0.000000000000000000 ) ) ;
#63 = AXIS2_PLACEMENT_3D ( 'NONE', #183, #293, #186 ) ;
#64 = EDGE_LOOP ( 'NONE', ( #328, #237, #203, #232 ) ) ;
#65 = DIRECTION ( 'NONE',  ( -1.000000000000000000, 0.000000000000000000, 0.000000000000000000 ) ) ;
#66 = CARTESIAN_POINT ( 'NONE',  ( 1.567547902908612421E-14, 51.00000000000000000, 0.000000000000000000 ) ) ;
#67 = ORIENTED_EDGE ( 'NONE', *, *, #9, .F. ) ;
#68 = DIRECTION ( 'NONE',  ( -3.121648703708940369E-17, -1.000000000000000000, -0.000000000000000000 ) ) ;
#69 = PRODUCT_DEFINITION_FORMATION_WITH_SPECIFIED_SOURCE ( 'ANY', '', #102, .NOT_KNOWN. ) ;
#70 = CARTESIAN_POINT ( 'NONE',  ( 0.000000000000000000, 27.27002938545506794, 0.000000000000000000 ) ) ;
#71 = EDGE_LOOP ( 'NONE', ( #27, #143, #175, #160 ) ) ;
#72 = DIRECTION ( 'NONE',  ( 1.000000000000000000, 0.000000000000000000, 0.000000000000000000 ) ) ;
#73 = CARTESIAN_POINT ( 'NONE',  ( -38.45000000000000995, 1.200273926576088040E-15, 4.708766942721574808E-15 ) ) ;
#74 = DIRECTION ( 'NONE',  ( -3.121648703708940369E-17, -1.000000000000000000, -0.000000000000000000 ) ) ;
#75 = APPLICATION_PROTOCOL_DEFINITION ( 'international standard', 'config_control_design', 1994, #125 ) ;
#76 = AXIS2_PLACEMENT_3D ( 'NONE', #321, #68, #108 ) ;
#77 = ORIENTED_EDGE ( 'NONE', *, *, #177, .F. ) ;
#78 = ORIENTED_EDGE ( 'NONE', *, *, #159, .F. ) ;
#79 = CARTESIAN_POINT ( 'NONE',  ( -44.45000000000000995, 2.775145697597248925E-15, 5.443555022209987275E-15 ) ) ;
#80 = UNCERTAINTY_MEASURE_WITH_UNIT (LENGTH_MEASURE( 1.000000000000000082E-05 ), #223, 'distance_accuracy_value', 'NONE');
#81 = CARTESIAN_POINT ( 'NONE',  ( 38.45000000000000995, -2.737445786329376771E-16, 0.000000000000000000 ) ) ;
#82 = SPHERICAL_SURFACE ( 'NONE', #318, 102.0000000000000000 ) ;
#83 = ADVANCED_FACE ( 'NONE', ( #371 ), #291, .F. ) ;
#84 =( GEOMETRIC_REPRESENTATION_CONTEXT ( 3 ) GLOBAL_UNCERTAINTY_ASSIGNED_CONTEXT ( ( #80 ) ) GLOBAL_UNIT_ASSIGNED_CONTEXT ( ( #223, #360, #333 ) ) REPRESENTATION_CONTEXT ( 'NONE', 'WORKASPACE' ) );
#85 = SECURITY_CLASSIFICATION ( '', '', #153 ) ;
#86 = CC_DESIGN_DATE_AND_TIME_ASSIGNMENT ( #376, #399, ( #279 ) ) ;
#87 = FACE_BOUND ( 'NONE', #375, .T. ) ;
#88 = COORDINATED_UNIVERSAL_TIME_OFFSET ( 10, 0, .AHEAD. ) ;
#89 = FACE_OUTER_BOUND ( 'NONE', #235, .T. ) ;
#90 = DIRECTION ( 'NONE',  ( 1.000000000000000000, -3.121648703708940369E-17, 0.000000000000000000 ) ) ;
#91 = PERSON_AND_ORGANIZATION_ROLE ( 'creator' ) ;
#92 = AXIS2_PLACEMENT_3D ( 'NONE', #281, #403, #277 ) ;
#93 = AXIS2_PLACEMENT_3D ( 'NONE', #295, #14, #141 ) ;
#94 = CARTESIAN_POINT ( 'NONE',  ( 1.447205093861779616E-15, 46.36028045507825368, 0.000000000000000000 ) ) ;
#95 = PERSON_AND_ORGANIZATION_ROLE ( 'creator' ) ;
#96 = DATE_AND_TIME ( #195, #241 ) ;
#97 = DIRECTION ( 'NONE',  ( 1.000000000000000000, -3.121648703708940986E-17, 0.000000000000000000 ) ) ;
#98 = DIRECTION ( 'NONE',  ( 0.000000000000000000, 0.000000000000000000, -1.000000000000000000 ) ) ;
#99 = AXIS2_PLACEMENT_3D ( 'NONE', #54, #396, #362 ) ;
#100 = CC_DESIGN_APPROVAL ( #114, ( #85 ) ) ;
#101 = DIRECTION ( 'NONE',  ( 1.000000000000000000, 0.000000000000000000, -1.224646799147353207E-16 ) ) ;
#102 = PRODUCT ( 'OEM-80NB-40-C_REV_', 'OEM-80NB-40-C_REV_', '', ( #339 ) ) ;
#103 = DIRECTION ( 'NONE',  ( 1.000000000000000000, 0.000000000000000000, 0.000000000000000000 ) ) ;
#104 = ORIENTED_EDGE ( 'NONE', *, *, #177, .T. ) ;
#105 = CARTESIAN_POINT ( 'NONE',  ( -24.45000000000000639, 27.27002938545506794, 2.994261423915279184E-15 ) ) ;
#106 = ORIENTED_EDGE ( 'NONE', *, *, #220, .F. ) ;
#107 = CYLINDRICAL_SURFACE ( 'NONE', #154, 44.45000000000000284 ) ;
#108 = DIRECTION ( 'NONE',  ( 1.000000000000000000, -3.121648703708940369E-17, 0.000000000000000000 ) ) ;
#109 = AXIS2_PLACEMENT_3D ( 'NONE', #345, #408, #231 ) ;
#110 = CIRCLE ( 'NONE', #115, 14.00000000000000178 ) ;
#111 = ORIENTED_EDGE ( 'NONE', *, *, #164, .T. ) ;
#112 = EDGE_CURVE ( 'NONE', #61, #352, #148, .T. ) ;
#113 = DESIGN_CONTEXT ( 'detailed design', #284, 'design' ) ;
#114 = APPROVAL ( #155, 'UNSPECIFIED' ) ;
#115 = AXIS2_PLACEMENT_3D ( 'NONE', #138, #262, #65 ) ;
#116 = DIRECTION ( 'NONE',  ( -3.121648703708940369E-17, -1.000000000000000000, -0.000000000000000000 ) ) ;
#117 = VERTEX_POINT ( 'NONE', #199 ) ;
#118 = FACE_OUTER_BOUND ( 'NONE', #45, .T. ) ;
#119 = APPROVAL_STATUS ( 'not_yet_approved' ) ;
#120 = AXIS2_PLACEMENT_3D ( 'NONE', #381, #315, #5 ) ;
#121 = EDGE_LOOP ( 'NONE', ( #43, #384, #151, #268 ) ) ;
#122 = EDGE_CURVE ( 'NONE', #410, #48, #370, .T. ) ;
#123 = CC_DESIGN_PERSON_AND_ORGANIZATION_ASSIGNMENT ( #161, #365, ( #102 ) ) ;
#124 = PERSON_AND_ORGANIZATION ( #29, #338 ) ;
#125 = APPLICATION_CONTEXT ( 'configuration controlled 3d designs of mechanical parts and assemblies' ) ;
#126 = CIRCLE ( 'NONE', #131, 30.41341463414634561 ) ;
#127 = PERSON_AND_ORGANIZATION ( #29, #338 ) ;
#128 = EDGE_CURVE ( 'NONE', #288, #142, #200, .T. ) ;
#129 = VERTEX_POINT ( 'NONE', #202 ) ;
#130 = CC_DESIGN_PERSON_AND_ORGANIZATION_ASSIGNMENT ( #127, #230, ( #69 ) ) ;
#131 = AXIS2_PLACEMENT_3D ( 'NONE', #387, #74, #355 ) ;
#132 = ORIENTED_EDGE ( 'NONE', *, *, #157, .F. ) ;
#133 = ORIENTED_EDGE ( 'NONE', *, *, #276, .F. ) ;
#134 = CARTESIAN_POINT ( 'NONE',  ( 6.245698675651501233E-15, -51.00000000000000000, 0.000000000000000000 ) ) ;
#135 = CARTESIAN_POINT ( 'NONE',  ( 44.45000000000000284, -1.387572848798624068E-15, 0.000000000000000000 ) ) ;
#136 = ORIENTED_EDGE ( 'NONE', *, *, #356, .T. ) ;
#137 = CC_DESIGN_PERSON_AND_ORGANIZATION_ASSIGNMENT ( #258, #158, ( #85 ) ) ;
#138 = CARTESIAN_POINT ( 'NONE',  ( 24.45000000000000639, 27.27002938545506794, 0.000000000000000000 ) ) ;
#139 = AXIS2_PLACEMENT_3D ( 'NONE', #94, #35, #103 ) ;
#140 = CIRCLE ( 'NONE', #4, 38.45000000000000995 ) ;
#141 = DIRECTION ( 'NONE',  ( 1.000000000000000000, -3.121648703708940986E-17, 0.000000000000000000 ) ) ;
#142 = VERTEX_POINT ( 'NONE', #33 ) ;
#143 = ORIENTED_EDGE ( 'NONE', *, *, #112, .F. ) ;
#144 = DIRECTION ( 'NONE',  ( 1.000000000000000000, -3.121648703708940369E-17, 0.000000000000000000 ) ) ;
#145 = EDGE_CURVE ( 'NONE', #142, #288, #216, .T. ) ;
#146 = CYLINDRICAL_SURFACE ( 'NONE', #99, 38.45000000000000995 ) ;
#147 = ORIENTED_EDGE ( 'NONE', *, *, #20, .T. ) ;
#148 = CIRCLE ( 'NONE', #109, 38.45000000000000995 ) ;
#149 = LOCAL_TIME ( 13, 52, 54.00000000000000000, #88 ) ;
#150 = CARTESIAN_POINT ( 'NONE',  ( 6.245698675651501233E-15, -51.00000000000000000, 0.000000000000000000 ) ) ;
#151 = ORIENTED_EDGE ( 'NONE', *, *, #220, .T. ) ;
#152 = CARTESIAN_POINT ( 'NONE',  ( 30.41341463414634561, 46.36028045507823947, 0.000000000000000000 ) ) ;
#153 = SECURITY_CLASSIFICATION_LEVEL ( 'unclassified' ) ;
#154 = AXIS2_PLACEMENT_3D ( 'NONE', #16, #210, #176 ) ;
#155 = APPROVAL_STATUS ( 'not_yet_approved' ) ;
#156 = LOCAL_TIME ( 13, 52, 54.00000000000000000, #191 ) ;
#157 = EDGE_CURVE ( 'NONE', #48, #410, #126, .T. ) ;
#158 = PERSON_AND_ORGANIZATION_ROLE ( 'classification_officer' ) ;
#159 = EDGE_CURVE ( 'NONE', #18, #357, #13, .T. ) ;
#160 = ORIENTED_EDGE ( 'NONE', *, *, #246, .T. ) ;
#161 = PERSON_AND_ORGANIZATION ( #29, #338 ) ;
#162 = CARTESIAN_POINT ( 'NONE',  ( 38.45000000000000995, 27.27002938545507149, 0.000000000000000000 ) ) ;
#163 = ORIENTED_EDGE ( 'NONE', *, *, #356, .F. ) ;
#164 = EDGE_CURVE ( 'NONE', #2, #288, #302, .T. ) ;
#165 = SHAPE_DEFINITION_REPRESENTATION ( #36, #207 ) ;
#166 = AXIS2_PLACEMENT_3D ( 'NONE', #312, #1, #97 ) ;
#167 = LOCAL_TIME ( 13, 52, 54.00000000000000000, #256 ) ;
#168 = CARTESIAN_POINT ( 'NONE',  ( 8.512745188121053436E-16, 27.27002938545507149, 0.000000000000000000 ) ) ;
#169 = ORIENTED_EDGE ( 'NONE', *, *, #196, .F. ) ;
#170 = AXIS2_PLACEMENT_3D ( 'NONE', #380, #204, #101 ) ;
#171 = ADVANCED_FACE ( 'NONE', ( #239 ), #107, .T. ) ;
#172 = CC_DESIGN_SECURITY_CLASSIFICATION ( #85, ( #69 ) ) ;
#173 = ORIENTED_EDGE ( 'NONE', *, *, #128, .T. ) ;
#174 = SPHERICAL_SURFACE ( 'NONE', #296, 102.0000000000000000 ) ;
#175 = ORIENTED_EDGE ( 'NONE', *, *, #24, .T. ) ;
#176 = DIRECTION ( 'NONE',  ( 1.000000000000000000, -3.121648703708940369E-17, 0.000000000000000000 ) ) ;
#177 = EDGE_CURVE ( 'NONE', #357, #185, #7, .T. ) ;
#178 = ORIENTED_EDGE ( 'NONE', *, *, #340, .T. ) ;
#179 = ADVANCED_FACE ( 'NONE', ( #254 ), #222, .T. ) ;
#180 = DIRECTION ( 'NONE',  ( -1.000000000000000000, 0.000000000000000000, 0.000000000000000000 ) ) ;
#181 = AXIS2_PLACEMENT_3D ( 'NONE', #392, #252, #271 ) ;
#182 = DIRECTION ( 'NONE',  ( -1.000000000000000000, 0.000000000000000000, 0.000000000000000000 ) ) ;
#183 = CARTESIAN_POINT ( 'NONE',  ( 1.268425921346877177E-15, 40.63320513419129298, 0.000000000000000000 ) ) ;
#184 = ORIENTED_EDGE ( 'NONE', *, *, #276, .T. ) ;
#185 = VERTEX_POINT ( 'NONE', #238 ) ;
#186 = DIRECTION ( 'NONE',  ( 1.000000000000000000, 0.000000000000000000, 0.000000000000000000 ) ) ;
#187 = CARTESIAN_POINT ( 'NONE',  ( -44.45000000000000284, 1.387572848798624068E-15, 5.443555022209985697E-15 ) ) ;
#188 = CIRCLE ( 'NONE', #240, 44.44999999999999574 ) ;
#189 = DIRECTION ( 'NONE',  ( 1.000000000000000000, 0.000000000000000000, 0.000000000000000000 ) ) ;
#190 = DIRECTION ( 'NONE',  ( -3.121648703708940369E-17, -1.000000000000000000, -0.000000000000000000 ) ) ;
#191 = COORDINATED_UNIVERSAL_TIME_OFFSET ( 10, 0, .AHEAD. ) ;
#192 = TOROIDAL_SURFACE ( 'NONE', #317, 24.45000000000000639, 19.99999999999999645 ) ;
#193 = PERSON_AND_ORGANIZATION ( #29, #338 ) ;
#194 = ORIENTED_EDGE ( 'NONE', *, *, #9, .T. ) ;
#195 = CALENDAR_DATE ( 2026, 4, 3 ) ;
#196 = EDGE_CURVE ( 'NONE', #50, #410, #372, .T. ) ;
#197 = DIRECTION ( 'NONE',  ( 1.000000000000000000, 0.000000000000000000, 0.000000000000000000 ) ) ;
#198 = CALENDAR_DATE ( 2026, 4, 3 ) ;
#199 = CARTESIAN_POINT ( 'NONE',  ( 38.45000000000000995, -7.347880794884119736E-16, 0.000000000000000000 ) ) ;
#200 = CIRCLE ( 'NONE', #289, 28.62439024390243958 ) ;
#201 = CIRCLE ( 'NONE', #234, 102.0000000000000000 ) ;
#202 = CARTESIAN_POINT ( 'NONE',  ( -38.45000000000000995, 1.665759773663764206E-15, 4.708766942721574808E-15 ) ) ;
#203 = ORIENTED_EDGE ( 'NONE', *, *, #395, .T. ) ;
#204 = DIRECTION ( 'NONE',  ( 1.224646799147353207E-16, -3.822917093059638207E-33, 1.000000000000000000 ) ) ;
#205 = DIRECTION ( 'NONE',  ( 1.000000000000000000, 0.000000000000000000, 0.000000000000000000 ) ) ;
#206 = ADVANCED_FACE ( 'NONE', ( #383 ), #272, .F. ) ;
#207 = ADVANCED_BREP_SHAPE_REPRESENTATION ( 'OEM-80NB-40-C_REV_', ( #369, #324 ), #84 ) ;
#208 = DIRECTION ( 'NONE',  ( 1.000000000000000000, 0.000000000000000000, -1.224646799147353207E-16 ) ) ;
#209 = ADVANCED_FACE ( 'NONE', ( #3 ), #174, .T. ) ;
#210 = DIRECTION ( 'NONE',  ( -3.121648703708940369E-17, -1.000000000000000000, -0.000000000000000000 ) ) ;
#211 = ORIENTED_EDGE ( 'NONE', *, *, #270, .T. ) ;
#212 = DIRECTION ( 'NONE',  ( 1.000000000000000000, -3.121648703708940369E-17, 0.000000000000000000 ) ) ;
#213 = DIRECTION ( 'NONE',  ( 1.224646799147353207E-16, -3.822917093059638207E-33, 1.000000000000000000 ) ) ;
#214 = ADVANCED_FACE ( 'NONE', ( #386 ), #265, .F. ) ;
#215 = ORIENTED_EDGE ( 'NONE', *, *, #251, .T. ) ;
#216 = CIRCLE ( 'NONE', #63, 28.62439024390243958 ) ;
#217 = DIRECTION ( 'NONE',  ( -3.121648703708940369E-17, -1.000000000000000000, -0.000000000000000000 ) ) ;
#218 = CARTESIAN_POINT ( 'NONE',  ( -38.45000000000000995, 27.27002938545507149, 4.708766942721574020E-15 ) ) ;
#219 = FACE_OUTER_BOUND ( 'NONE', #290, .T. ) ;
#220 = EDGE_CURVE ( 'NONE', #142, #61, #110, .T. ) ;
#221 = DIRECTION ( 'NONE',  ( -1.000000000000000000, 0.000000000000000000, 0.000000000000000000 ) ) ;
#222 = TOROIDAL_SURFACE ( 'NONE', #37, 24.45000000000000639, 19.99999999999999645 ) ;
#223 =( LENGTH_UNIT ( ) NAMED_UNIT ( * ) SI_UNIT ( .MILLI., .METRE. ) );
#224 = EDGE_CURVE ( 'NONE', #352, #129, #354, .T. ) ;
#225 = APPROVAL_ROLE ( '' ) ;
#226 = FACE_OUTER_BOUND ( 'NONE', #30, .T. ) ;
#227 = CIRCLE ( 'NONE', #359, 19.99999999999999645 ) ;
#228 = APPROVAL_PERSON_ORGANIZATION ( #193, #314, #225 ) ;
#229 = ORIENTED_EDGE ( 'NONE', *, *, #20, .F. ) ;
#230 = PERSON_AND_ORGANIZATION_ROLE ( 'design_supplier' ) ;
#231 = DIRECTION ( 'NONE',  ( 1.000000000000000000, 0.000000000000000000, 0.000000000000000000 ) ) ;
#232 = ORIENTED_EDGE ( 'NONE', *, *, #24, .F. ) ;
#233 = DATE_AND_TIME ( #198, #58 ) ;
#234 = AXIS2_PLACEMENT_3D ( 'NONE', #150, #269, #247 ) ;
#235 = EDGE_LOOP ( 'NONE', ( #147, #184 ) ) ;
#236 = DIRECTION ( 'NONE',  ( 0.000000000000000000, 0.000000000000000000, 1.000000000000000000 ) ) ;
#237 = ORIENTED_EDGE ( 'NONE', *, *, #224, .T. ) ;
#238 = CARTESIAN_POINT ( 'NONE',  ( 44.45000000000000995, 0.000000000000000000, 0.000000000000000000 ) ) ;
#239 = FACE_OUTER_BOUND ( 'NONE', #297, .T. ) ;
#240 = AXIS2_PLACEMENT_3D ( 'NONE', #168, #348, #205 ) ;
#241 = LOCAL_TIME ( 13, 52, 54.00000000000000000, #344 ) ;
#242 = CARTESIAN_POINT ( 'NONE',  ( 6.245698675651501233E-15, -51.00000000000000000, 0.000000000000000000 ) ) ;
#243 = DIRECTION ( 'NONE',  ( 1.000000000000000000, 0.000000000000000000, 0.000000000000000000 ) ) ;
#244 = LINE ( 'NONE', #187, #53 ) ;
#245 = CARTESIAN_POINT ( 'NONE',  ( 8.512745188121053436E-16, 27.27002938545507149, 0.000000000000000000 ) ) ;
#246 = EDGE_CURVE ( 'NONE', #117, #129, #32, .T. ) ;
#247 = DIRECTION ( 'NONE',  ( 1.000000000000000000, 0.000000000000000000, -1.224646799147352961E-16 ) ) ;
#248 = ORIENTED_EDGE ( 'NONE', *, *, #340, .F. ) ;
#249 = PLANE ( 'NONE',  #331 ) ;
#250 = FACE_OUTER_BOUND ( 'NONE', #10, .T. ) ;
#251 = EDGE_CURVE ( 'NONE', #48, #18, #379, .T. ) ;
#252 = DIRECTION ( 'NONE',  ( -3.121648703708940369E-17, -1.000000000000000000, -0.000000000000000000 ) ) ;
#253 = AXIS2_PLACEMENT_3D ( 'NONE', #242, #292, #319 ) ;
#254 = FACE_OUTER_BOUND ( 'NONE', #307, .T. ) ;
#255 = DIRECTION ( 'NONE',  ( 0.000000000000000000, 0.000000000000000000, -1.000000000000000000 ) ) ;
#256 = COORDINATED_UNIVERSAL_TIME_OFFSET ( 10, 0, .AHEAD. ) ;
#257 = APPROVAL_STATUS ( 'not_yet_approved' ) ;
#258 = PERSON_AND_ORGANIZATION ( #29, #338 ) ;
#259 = AXIS2_PLACEMENT_3D ( 'NONE', #134, #98, #180 ) ;
#260 = DIRECTION ( 'NONE',  ( -3.121648703708940369E-17, -1.000000000000000000, -0.000000000000000000 ) ) ;
#261 = PRODUCT_RELATED_PRODUCT_CATEGORY ( 'detail', '', ( #102 ) ) ;
#262 = DIRECTION ( 'NONE',  ( 0.000000000000000000, 0.000000000000000000, -1.000000000000000000 ) ) ;
#263 = DIRECTION ( 'NONE',  ( -3.121648703708940369E-17, -1.000000000000000000, -0.000000000000000000 ) ) ;
#264 = CARTESIAN_POINT ( 'NONE',  ( 6.245698675651501233E-15, -51.00000000000000000, 0.000000000000000000 ) ) ;
#265 = SPHERICAL_SURFACE ( 'NONE', #253, 95.99999999999998579 ) ;
#266 = CIRCLE ( 'NONE', #120, 44.45000000000000995 ) ;
#267 = EDGE_LOOP ( 'NONE', ( #394, #178, #282 ) ) ;
#268 = ORIENTED_EDGE ( 'NONE', *, *, #112, .T. ) ;
#269 = DIRECTION ( 'NONE',  ( 1.224646799147353207E-16, -3.822917093059638207E-33, 1.000000000000000000 ) ) ;
#270 = EDGE_CURVE ( 'NONE', #357, #18, #188, .T. ) ;
#271 = DIRECTION ( 'NONE',  ( 1.000000000000000000, -3.121648703708940369E-17, 0.000000000000000000 ) ) ;
#272 = TOROIDAL_SURFACE ( 'NONE', #76, 24.45000000000000639, 14.00000000000000178 ) ;
#273 = APPROVAL_PERSON_ORGANIZATION ( #28, #114, #404 ) ;
#274 = CARTESIAN_POINT ( 'NONE',  ( 44.44999999999999574, 27.27002938545507149, 0.000000000000000000 ) ) ;
#275 = CARTESIAN_POINT ( 'NONE',  ( 1.512078606711937820E-14, 44.99999999999999289, 0.000000000000000000 ) ) ;
#276 = EDGE_CURVE ( 'NONE', #325, #185, #266, .T. ) ;
#277 = DIRECTION ( 'NONE',  ( 1.000000000000000000, -3.121648703708940369E-17, 0.000000000000000000 ) ) ;
#278 = CARTESIAN_POINT ( 'NONE',  ( 0.000000000000000000, 0.000000000000000000, 0.000000000000000000 ) ) ;
#279 = PRODUCT_DEFINITION ( 'UNKNOWN', '', #69, #113 ) ;
#280 = CIRCLE ( 'NONE', #287, 38.45000000000000995 ) ;
#281 = CARTESIAN_POINT ( 'NONE',  ( 4.331514984753946910E-32, 1.387572848798624265E-15, 0.000000000000000000 ) ) ;
#282 = ORIENTED_EDGE ( 'NONE', *, *, #145, .T. ) ;
#283 = DATE_TIME_ROLE ( 'classification_date' ) ;
#284 = APPLICATION_CONTEXT ( 'configuration controlled 3d designs of mechanical parts and assemblies' ) ;
#285 = EDGE_CURVE ( 'NONE', #288, #352, #364, .T. ) ;
#286 = APPROVAL_DATE_TIME ( #57, #402 ) ;
#287 = AXIS2_PLACEMENT_3D ( 'NONE', #300, #116, #243 ) ;
#288 = VERTEX_POINT ( 'NONE', #326 ) ;
#289 = AXIS2_PLACEMENT_3D ( 'NONE', #62, #378, #197 ) ;
#290 = EDGE_LOOP ( 'NONE', ( #8, #309, #320, #106 ) ) ;
#291 = CYLINDRICAL_SURFACE ( 'NONE', #166, 38.45000000000000995 ) ;
#292 = DIRECTION ( 'NONE',  ( 0.000000000000000000, 0.000000000000000000, 1.000000000000000000 ) ) ;
#293 = DIRECTION ( 'NONE',  ( -3.121648703708940369E-17, -1.000000000000000000, -0.000000000000000000 ) ) ;
#294 = ORIENTED_EDGE ( 'NONE', *, *, #122, .T. ) ;
#295 = CARTESIAN_POINT ( 'NONE',  ( 1.453083291156102139E-32, 4.654858470876760668E-16, 0.000000000000000000 ) ) ;
#296 = AXIS2_PLACEMENT_3D ( 'NONE', #41, #236, #40 ) ;
#297 = EDGE_LOOP ( 'NONE', ( #211, #382, #229, #77 ) ) ;
#298 = CARTESIAN_POINT ( 'NONE',  ( 0.000000000000000000, 27.27002938545506794, 0.000000000000000000 ) ) ;
#299 = DIRECTION ( 'NONE',  ( 1.000000000000000000, 0.000000000000000000, 0.000000000000000000 ) ) ;
#300 = CARTESIAN_POINT ( 'NONE',  ( 8.512745188121053436E-16, 27.27002938545507149, 0.000000000000000000 ) ) ;
#301 = ORIENTED_EDGE ( 'NONE', *, *, #322, .F. ) ;
#302 = CIRCLE ( 'NONE', #26, 95.99999999999998579 ) ;
#303 = DIRECTION ( 'NONE',  ( -3.121648703708940369E-17, -1.000000000000000000, -0.000000000000000000 ) ) ;
#304 = ADVANCED_FACE ( 'NONE', ( #118 ), #17, .T. ) ;
#305 = DIRECTION ( 'NONE',  ( 1.000000000000000000, 0.000000000000000000, 0.000000000000000000 ) ) ;
#306 = TOROIDAL_SURFACE ( 'NONE', #393, 24.45000000000000639, 14.00000000000000178 ) ;
#307 = EDGE_LOOP ( 'NONE', ( #46, #56, #194, #78 ) ) ;
#308 = PERSON_AND_ORGANIZATION ( #29, #338 ) ;
#309 = ORIENTED_EDGE ( 'NONE', *, *, #285, .T. ) ;
#310 = CC_DESIGN_PERSON_AND_ORGANIZATION_ASSIGNMENT ( #308, #95, ( #69 ) ) ;
#311 = APPROVAL_DATE_TIME ( #233, #114 ) ;
#312 = CARTESIAN_POINT ( 'NONE',  ( 0.000000000000000000, 0.000000000000000000, 0.000000000000000000 ) ) ;
#313 = AXIS2_PLACEMENT_3D ( 'NONE', #23, #388, #182 ) ;
#314 = APPROVAL ( #119, 'UNSPECIFIED' ) ;
#315 = DIRECTION ( 'NONE',  ( -3.121648703708940369E-17, -1.000000000000000000, -0.000000000000000000 ) ) ;
#316 = ORIENTED_EDGE ( 'NONE', *, *, #196, .T. ) ;
#317 = AXIS2_PLACEMENT_3D ( 'NONE', #405, #190, #90 ) ;
#318 = AXIS2_PLACEMENT_3D ( 'NONE', #397, #52, #189 ) ;
#319 = DIRECTION ( 'NONE',  ( 1.000000000000000000, 0.000000000000000000, 0.000000000000000000 ) ) ;
#320 = ORIENTED_EDGE ( 'NONE', *, *, #346, .T. ) ;
#321 = CARTESIAN_POINT ( 'NONE',  ( 0.000000000000000000, 27.27002938545506794, 0.000000000000000000 ) ) ;
#322 = EDGE_CURVE ( 'NONE', #18, #325, #244, .T. ) ;
#323 = CC_DESIGN_APPROVAL ( #402, ( #279 ) ) ;
#324 = AXIS2_PLACEMENT_3D ( 'NONE', #278, #335, #305 ) ;
#325 = VERTEX_POINT ( 'NONE', #79 ) ;
#326 = CARTESIAN_POINT ( 'NONE',  ( -28.62439024390243247, 40.63320513419129298, 3.505476788973984732E-15 ) ) ;
#327 = DIRECTION ( 'NONE',  ( -3.121648703708940369E-17, -1.000000000000000000, -0.000000000000000000 ) ) ;
#328 = ORIENTED_EDGE ( 'NONE', *, *, #346, .F. ) ;
#329 = DIRECTION ( 'NONE',  ( -3.121648703708940369E-17, -1.000000000000000000, 0.000000000000000000 ) ) ;
#330 = DIRECTION ( 'NONE',  ( -3.121648703708940369E-17, -1.000000000000000000, -0.000000000000000000 ) ) ;
#331 = AXIS2_PLACEMENT_3D ( 'NONE', #81, #329, #334 ) ;
#332 = LINE ( 'NONE', #367, #12 ) ;
#333 =( NAMED_UNIT ( * ) SI_UNIT ( $, .STERADIAN. ) SOLID_ANGLE_UNIT ( ) );
#334 = DIRECTION ( 'NONE',  ( 1.000000000000000000, -3.121648703708940369E-17, 0.000000000000000000 ) ) ;
#335 = DIRECTION ( 'NONE',  ( 0.000000000000000000, 0.000000000000000000, 1.000000000000000000 ) ) ;
#336 = APPROVAL_ROLE ( '' ) ;
#337 = DIRECTION ( 'NONE',  ( -3.121648703708940369E-17, -1.000000000000000000, -0.000000000000000000 ) ) ;
#338 = ORGANIZATION ( 'UNSPECIFIED', 'UNSPECIFIED', '' ) ;
#339 = MECHANICAL_CONTEXT ( 'NONE', #125, 'mechanical' ) ;
#340 = EDGE_CURVE ( 'NONE', #2, #142, #361, .T. ) ;
#341 = ORIENTED_EDGE ( 'NONE', *, *, #270, .F. ) ;
#342 = COORDINATED_UNIVERSAL_TIME_OFFSET ( 10, 0, .AHEAD. ) ;
#343 = ADVANCED_FACE ( 'NONE', ( #219 ), #306, .F. ) ;
#344 = COORDINATED_UNIVERSAL_TIME_OFFSET ( 10, 0, .AHEAD. ) ;
#345 = CARTESIAN_POINT ( 'NONE',  ( 8.512745188121053436E-16, 27.27002938545507149, 0.000000000000000000 ) ) ;
#346 = EDGE_CURVE ( 'NONE', #352, #61, #280, .T. ) ;
#347 = AXIS2_PLACEMENT_3D ( 'NONE', #105, #350, #208 ) ;
#348 = DIRECTION ( 'NONE',  ( -3.121648703708940369E-17, -1.000000000000000000, -0.000000000000000000 ) ) ;
#349 = CARTESIAN_POINT ( 'NONE',  ( -30.41341463414633495, 46.36028045507823947, 3.724569088284859271E-15 ) ) ;
#350 = DIRECTION ( 'NONE',  ( 1.224646799147353207E-16, -3.822917093059638207E-33, 1.000000000000000000 ) ) ;
#351 = ADVANCED_FACE ( 'NONE', ( #47 ), #49, .F. ) ;
#352 = VERTEX_POINT ( 'NONE', #218 ) ;
#353 = DIRECTION ( 'NONE',  ( -3.121648703708940369E-17, -1.000000000000000000, -0.000000000000000000 ) ) ;
#354 = LINE ( 'NONE', #73, #44 ) ;
#355 = DIRECTION ( 'NONE',  ( 1.000000000000000000, 0.000000000000000000, 0.000000000000000000 ) ) ;
#356 = EDGE_CURVE ( 'NONE', #50, #48, #201, .T. ) ;
#357 = VERTEX_POINT ( 'NONE', #274 ) ;
#358 = CARTESIAN_POINT ( 'NONE',  ( 6.245698675651501233E-15, -51.00000000000000000, 0.000000000000000000 ) ) ;
#359 = AXIS2_PLACEMENT_3D ( 'NONE', #366, #255, #221 ) ;
#360 =( NAMED_UNIT ( * ) PLANE_ANGLE_UNIT ( ) SI_UNIT ( $, .RADIAN. ) );
#361 = CIRCLE ( 'NONE', #313, 95.99999999999998579 ) ;
#362 = DIRECTION ( 'NONE',  ( 1.000000000000000000, -3.121648703708940986E-17, 0.000000000000000000 ) ) ;
#363 = CARTESIAN_POINT ( 'NONE',  ( 1.453083291156102139E-32, 4.654858470876760668E-16, 0.000000000000000000 ) ) ;
#364 = CIRCLE ( 'NONE', #347, 14.00000000000000178 ) ;
#365 = PERSON_AND_ORGANIZATION_ROLE ( 'design_owner' ) ;
#366 = CARTESIAN_POINT ( 'NONE',  ( 24.45000000000000639, 27.27002938545506794, 0.000000000000000000 ) ) ;
#367 = CARTESIAN_POINT ( 'NONE',  ( 38.45000000000000995, -1.200273926576088040E-15, 0.000000000000000000 ) ) ;
#368 = CC_DESIGN_DATE_AND_TIME_ASSIGNMENT ( #96, #283, ( #85 ) ) ;
#369 = MANIFOLD_SOLID_BREP ( 'Revolve1', #391 ) ;
#370 = CIRCLE ( 'NONE', #139, 30.41341463414634561 ) ;
#371 = FACE_OUTER_BOUND ( 'NONE', #64, .T. ) ;
#372 = CIRCLE ( 'NONE', #259, 102.0000000000000000 ) ;
#373 = ORIENTED_EDGE ( 'NONE', *, *, #246, .F. ) ;
#374 = DATE_AND_TIME ( #60, #167 ) ;
#375 = EDGE_LOOP ( 'NONE', ( #373, #39 ) ) ;
#376 = DATE_AND_TIME ( #55, #149 ) ;
#377 = ADVANCED_FACE ( 'NONE', ( #390 ), #146, .F. ) ;
#378 = DIRECTION ( 'NONE',  ( -3.121648703708940369E-17, -1.000000000000000000, -0.000000000000000000 ) ) ;
#379 = CIRCLE ( 'NONE', #170, 19.99999999999999645 ) ;
#380 = CARTESIAN_POINT ( 'NONE',  ( -24.45000000000000639, 27.27002938545506794, 2.994261423915279184E-15 ) ) ;
#381 = CARTESIAN_POINT ( 'NONE',  ( 4.331514984753946910E-32, 1.387572848798624265E-15, 0.000000000000000000 ) ) ;
#382 = ORIENTED_EDGE ( 'NONE', *, *, #322, .T. ) ;
#383 = FACE_OUTER_BOUND ( 'NONE', #121, .T. ) ;
#384 = ORIENTED_EDGE ( 'NONE', *, *, #145, .F. ) ;
#385 = AXIS2_PLACEMENT_3D ( 'NONE', #245, #327, #72 ) ;
#386 = FACE_OUTER_BOUND ( 'NONE', #401, .T. ) ;
#387 = CARTESIAN_POINT ( 'NONE',  ( 1.447205093861779616E-15, 46.36028045507825368, 0.000000000000000000 ) ) ;
#388 = DIRECTION ( 'NONE',  ( 0.000000000000000000, 0.000000000000000000, -1.000000000000000000 ) ) ;
#389 = ADVANCED_FACE ( 'NONE', ( #250 ), #82, .T. ) ;
#390 = FACE_OUTER_BOUND ( 'NONE', #71, .T. ) ;
#391 = CLOSED_SHELL ( 'NONE', ( #25, #171, #83, #343, #214, #209, #389, #351, #206, #377, #34, #304, #179 ) ) ;
#392 = CARTESIAN_POINT ( 'NONE',  ( 0.000000000000000000, 0.000000000000000000, 0.000000000000000000 ) ) ;
#393 = AXIS2_PLACEMENT_3D ( 'NONE', #298, #330, #144 ) ;
#394 = ORIENTED_EDGE ( 'NONE', *, *, #164, .F. ) ;
#395 = EDGE_CURVE ( 'NONE', #129, #117, #140, .T. ) ;
#396 = DIRECTION ( 'NONE',  ( -3.121648703708940369E-17, -1.000000000000000000, -0.000000000000000000 ) ) ;
#397 = CARTESIAN_POINT ( 'NONE',  ( 6.245698675651501233E-15, -51.00000000000000000, 0.000000000000000000 ) ) ;
#398 = CARTESIAN_POINT ( 'NONE',  ( -44.44999999999999574, 27.27002938545507149, 5.443555022209984909E-15 ) ) ;
#399 = DATE_TIME_ROLE ( 'creation_date' ) ;
#400 = APPROVAL_PERSON_ORGANIZATION ( #59, #402, #336 ) ;
#401 = EDGE_LOOP ( 'NONE', ( #248, #111, #173 ) ) ;
#402 = APPROVAL ( #257, 'UNSPECIFIED' ) ;
#403 = DIRECTION ( 'NONE',  ( -3.121648703708940369E-17, -1.000000000000000000, -0.000000000000000000 ) ) ;
#404 = APPROVAL_ROLE ( '' ) ;
#405 = CARTESIAN_POINT ( 'NONE',  ( 0.000000000000000000, 27.27002938545506794, 0.000000000000000000 ) ) ;
#406 = CALENDAR_DATE ( 2026, 4, 3 ) ;
#407 = CIRCLE ( 'NONE', #92, 44.45000000000000995 ) ;
#408 = DIRECTION ( 'NONE',  ( -3.121648703708940369E-17, -1.000000000000000000, -0.000000000000000000 ) ) ;
#409 = VECTOR ( 'NONE', #263, 1000.000000000000000 ) ;
#410 = VERTEX_POINT ( 'NONE', #152 ) ;
#411 = APPROVAL_DATE_TIME ( #374, #314 ) ;
ENDSEC;
END-ISO-10303-21;
