ISO-10303-21;
HEADER;
FILE_DESCRIPTION (( 'STEP AP203' ),
    '1' );
FILE_NAME ('OEM-80NB-JIS30K-3_REV_.step',
    '2026-01-19T23:19:11',
    ( '' ),
    ( '' ),
    'SwSTEP 2.0',
    'SolidWorks 2025',
    '' );
FILE_SCHEMA (( 'CONFIG_CONTROL_DESIGN' ));
ENDSEC;

DATA;
#1 = EDGE_CURVE ( 'NONE', #134, #168, #234, .T. ) ;
#2 = CIRCLE ( 'NONE', #29, 40.00000000000000000 ) ;
#3 = APPROVAL_ROLE ( '' ) ;
#4 = DIRECTION ( 'NONE',  ( 1.000000000000000000, 0.000000000000000000, 0.000000000000000000 ) ) ;
#5 =( LENGTH_UNIT ( ) NAMED_UNIT ( * ) SI_UNIT ( .MILLI., .METRE. ) );
#6 = PERSON_AND_ORGANIZATION ( #15, #98 ) ;
#7 = CARTESIAN_POINT ( 'NONE',  ( -3.000000000000000000, 0.000000000000000000, -73.50000000000000000 ) ) ;
#8 = APPROVAL_STATUS ( 'not_yet_approved' ) ;
#9 = CARTESIAN_POINT ( 'NONE',  ( -3.000000000000000000, 9.001153973733046011E-15, 73.50000000000000000 ) ) ;
#10 = DIRECTION ( 'NONE',  ( 1.000000000000000000, 0.000000000000000000, 0.000000000000000000 ) ) ;
#11 = VECTOR ( 'NONE', #36, 1000.000000000000000 ) ;
#12 = ORIENTED_EDGE ( 'NONE', *, *, #124, .T. ) ;
#13 = EDGE_LOOP ( 'NONE', ( #95, #92, #228, #188 ) ) ;
#14 = ORIENTED_EDGE ( 'NONE', *, *, #202, .T. ) ;
#15 = PERSON ( 'UNSPECIFIED', 'UNSPECIFIED', 'UNSPECIFIED', ('UNSPECIFIED'), ('UNSPECIFIED'), ('UNSPECIFIED') ) ;
#16 = ORIENTED_EDGE ( 'NONE', *, *, #124, .F. ) ;
#17 = AXIS2_PLACEMENT_3D ( 'NONE', #19, #10, #173 ) ;
#18 = CARTESIAN_POINT ( 'NONE',  ( -3.000000000000000000, 4.898587196589413026E-15, 40.00000000000000000 ) ) ;
#19 = CARTESIAN_POINT ( 'NONE',  ( -3.000000000000000000, 0.000000000000000000, 0.000000000000000000 ) ) ;
#20 = COORDINATED_UNIVERSAL_TIME_OFFSET ( 10, 0, .AHEAD. ) ;
#21 = CARTESIAN_POINT ( 'NONE',  ( -3.000000000000000000, 0.000000000000000000, -40.00000000000000000 ) ) ;
#22 = DIRECTION ( 'NONE',  ( 0.000000000000000000, 0.000000000000000000, 1.000000000000000000 ) ) ;
#23 = AXIS2_PLACEMENT_3D ( 'NONE', #203, #198, #42 ) ;
#24 = ADVANCED_FACE ( 'NONE', ( #96 ), #115, .F. ) ;
#25 = PERSON_AND_ORGANIZATION ( #15, #98 ) ;
#26 = DIRECTION ( 'NONE',  ( 0.000000000000000000, 0.000000000000000000, -1.000000000000000000 ) ) ;
#27 = CIRCLE ( 'NONE', #49, 40.00000000000000000 ) ;
#28 = APPROVAL_PERSON_ORGANIZATION ( #43, #218, #88 ) ;
#29 = AXIS2_PLACEMENT_3D ( 'NONE', #68, #146, #221 ) ;
#30 = EDGE_LOOP ( 'NONE', ( #187, #136, #12, #153 ) ) ;
#31 = CC_DESIGN_PERSON_AND_ORGANIZATION_ASSIGNMENT ( #235, #199, ( #182 ) ) ;
#32 = MANIFOLD_SOLID_BREP ( 'Cut-Extrude1', #176 ) ;
#33 = CC_DESIGN_APPROVAL ( #70, ( #167 ) ) ;
#34 = DIRECTION ( 'NONE',  ( 1.000000000000000000, -0.000000000000000000, -0.000000000000000000 ) ) ;
#35 = EDGE_CURVE ( 'NONE', #249, #93, #211, .T. ) ;
#36 = DIRECTION ( 'NONE',  ( 1.000000000000000000, -0.000000000000000000, -0.000000000000000000 ) ) ;
#37 = CALENDAR_DATE ( 2026, 20, 1 ) ;
#38 = AXIS2_PLACEMENT_3D ( 'NONE', #195, #22, #177 ) ;
#39 = APPLICATION_CONTEXT ( 'configuration controlled 3d designs of mechanical parts and assemblies' ) ;
#40 = DIRECTION ( 'NONE',  ( 1.000000000000000000, 0.000000000000000000, 0.000000000000000000 ) ) ;
#41 = DIRECTION ( 'NONE',  ( 0.000000000000000000, 0.000000000000000000, -1.000000000000000000 ) ) ;
#42 = DIRECTION ( 'NONE',  ( 0.000000000000000000, 0.000000000000000000, -1.000000000000000000 ) ) ;
#43 = PERSON_AND_ORGANIZATION ( #15, #98 ) ;
#44 = UNCERTAINTY_MEASURE_WITH_UNIT (LENGTH_MEASURE( 1.000000000000000082E-05 ), #5, 'distance_accuracy_value', 'NONE');
#45 = LOCAL_TIME ( 10, 19, 10.00000000000000000, #20 ) ;
#46 = DIRECTION ( 'NONE',  ( 1.000000000000000000, 0.000000000000000000, 0.000000000000000000 ) ) ;
#47 = APPROVAL_STATUS ( 'not_yet_approved' ) ;
#48 = CARTESIAN_POINT ( 'NONE',  ( 0.000000000000000000, 0.000000000000000000, -73.50000000000000000 ) ) ;
#49 = AXIS2_PLACEMENT_3D ( 'NONE', #216, #46, #243 ) ;
#50 = PLANE ( 'NONE',  #247 ) ;
#51 = ORIENTED_EDGE ( 'NONE', *, *, #1, .F. ) ;
#52 = EDGE_CURVE ( 'NONE', #157, #93, #191, .T. ) ;
#53 = VECTOR ( 'NONE', #175, 1000.000000000000000 ) ;
#54 = CC_DESIGN_APPROVAL ( #218, ( #209 ) ) ;
#55 = VERTEX_POINT ( 'NONE', #121 ) ;
#56 = CIRCLE ( 'NONE', #197, 73.50000000000000000 ) ;
#57 = DIRECTION ( 'NONE',  ( 0.000000000000000000, 0.000000000000000000, -1.000000000000000000 ) ) ;
#58 = CARTESIAN_POINT ( 'NONE',  ( 0.000000000000000000, 0.000000000000000000, 0.000000000000000000 ) ) ;
#59 = APPROVAL_DATE_TIME ( #87, #233 ) ;
#60 = CC_DESIGN_PERSON_AND_ORGANIZATION_ASSIGNMENT ( #214, #220, ( #129 ) ) ;
#61 = CARTESIAN_POINT ( 'NONE',  ( -3.000000000000000000, 9.001153973733046011E-15, 73.50000000000000000 ) ) ;
#62 = CARTESIAN_POINT ( 'NONE',  ( -3.000000000000000000, 0.000000000000000000, 0.000000000000000000 ) ) ;
#63 = CALENDAR_DATE ( 2026, 20, 1 ) ;
#64 = DATE_AND_TIME ( #192, #45 ) ;
#65 = DIRECTION ( 'NONE',  ( 1.000000000000000000, 0.000000000000000000, 0.000000000000000000 ) ) ;
#66 = CARTESIAN_POINT ( 'NONE',  ( 0.000000000000000000, 0.000000000000000000, -40.00000000000000000 ) ) ;
#67 = COORDINATED_UNIVERSAL_TIME_OFFSET ( 10, 0, .AHEAD. ) ;
#68 = CARTESIAN_POINT ( 'NONE',  ( -3.000000000000000000, 0.000000000000000000, 0.000000000000000000 ) ) ;
#69 = CARTESIAN_POINT ( 'NONE',  ( 0.000000000000000000, 0.000000000000000000, 0.000000000000000000 ) ) ;
#70 = APPROVAL ( #47, 'UNSPECIFIED' ) ;
#71 = AXIS2_PLACEMENT_3D ( 'NONE', #237, #117, #154 ) ;
#72 = EDGE_CURVE ( 'NONE', #168, #150, #56, .T. ) ;
#73 = ORIENTED_EDGE ( 'NONE', *, *, #183, .F. ) ;
#74 = ORIENTED_EDGE ( 'NONE', *, *, #204, .F. ) ;
#75 = CC_DESIGN_SECURITY_CLASSIFICATION ( #167, ( #129 ) ) ;
#76 = ORIENTED_EDGE ( 'NONE', *, *, #231, .T. ) ;
#77 = EDGE_CURVE ( 'NONE', #55, #249, #140, .T. ) ;
#78 = CARTESIAN_POINT ( 'NONE',  ( -3.000000000000000000, 0.000000000000000000, -73.50000000000000000 ) ) ;
#79 = FACE_BOUND ( 'NONE', #225, .T. ) ;
#80 = CC_DESIGN_APPROVAL ( #233, ( #129 ) ) ;
#81 = COORDINATED_UNIVERSAL_TIME_OFFSET ( 10, 0, .AHEAD. ) ;
#82 = PRODUCT_DEFINITION_SHAPE ( 'NONE', 'NONE',  #209 ) ;
#83 = DIRECTION ( 'NONE',  ( 0.000000000000000000, 0.000000000000000000, -1.000000000000000000 ) ) ;
#84 = ADVANCED_BREP_SHAPE_REPRESENTATION ( 'OEM-80NB-JIS30K-3_REV_', ( #32, #38 ), #148 ) ;
#85 = CALENDAR_DATE ( 2026, 20, 1 ) ;
#86 = PERSON_AND_ORGANIZATION_ROLE ( 'creator' ) ;
#87 = DATE_AND_TIME ( #85, #219 ) ;
#88 = APPROVAL_ROLE ( '' ) ;
#89 = CARTESIAN_POINT ( 'NONE',  ( -3.000000000000000000, 0.000000000000000000, 0.000000000000000000 ) ) ;
#90 = CARTESIAN_POINT ( 'NONE',  ( -3.000000000000000000, 0.000000000000000000, 0.000000000000000000 ) ) ;
#91 = AXIS2_PLACEMENT_3D ( 'NONE', #69, #223, #57 ) ;
#92 = ORIENTED_EDGE ( 'NONE', *, *, #142, .F. ) ;
#93 = VERTEX_POINT ( 'NONE', #113 ) ;
#94 = ORIENTED_EDGE ( 'NONE', *, *, #1, .T. ) ;
#95 = ORIENTED_EDGE ( 'NONE', *, *, #52, .F. ) ;
#96 = FACE_OUTER_BOUND ( 'NONE', #13, .T. ) ;
#97 = CC_DESIGN_DATE_AND_TIME_ASSIGNMENT ( #106, #120, ( #209 ) ) ;
#98 = ORGANIZATION ( 'UNSPECIFIED', 'UNSPECIFIED', '' ) ;
#99 = ORIENTED_EDGE ( 'NONE', *, *, #196, .F. ) ;
#100 = CALENDAR_DATE ( 2026, 20, 1 ) ;
#101 = AXIS2_PLACEMENT_3D ( 'NONE', #58, #65, #165 ) ;
#102 = DIRECTION ( 'NONE',  ( 1.000000000000000000, 0.000000000000000000, 0.000000000000000000 ) ) ;
#103 = FACE_OUTER_BOUND ( 'NONE', #248, .T. ) ;
#104 = APPROVAL_PERSON_ORGANIZATION ( #201, #233, #3 ) ;
#105 = APPROVAL_DATE_TIME ( #241, #218 ) ;
#106 = DATE_AND_TIME ( #63, #181 ) ;
#107 = DATE_AND_TIME ( #37, #163 ) ;
#108 = CARTESIAN_POINT ( 'NONE',  ( 0.000000000000000000, 9.001153973733046011E-15, 73.50000000000000000 ) ) ;
#109 = AXIS2_PLACEMENT_3D ( 'NONE', #90, #164, #245 ) ;
#110 = ORIENTED_EDGE ( 'NONE', *, *, #202, .F. ) ;
#111 = ORIENTED_EDGE ( 'NONE', *, *, #142, .T. ) ;
#112 = ADVANCED_FACE ( 'NONE', ( #79, #156 ), #232, .T. ) ;
#113 = CARTESIAN_POINT ( 'NONE',  ( 0.000000000000000000, 4.898587196589413026E-15, 40.00000000000000000 ) ) ;
#114 = AXIS2_PLACEMENT_3D ( 'NONE', #193, #119, #125 ) ;
#115 = CYLINDRICAL_SURFACE ( 'NONE', #158, 40.00000000000000000 ) ;
#116 = PERSON_AND_ORGANIZATION ( #15, #98 ) ;
#117 = DIRECTION ( 'NONE',  ( 1.000000000000000000, 0.000000000000000000, 0.000000000000000000 ) ) ;
#118 = ADVANCED_FACE ( 'NONE', ( #141, #246 ), #50, .F. ) ;
#119 = DIRECTION ( 'NONE',  ( 1.000000000000000000, 0.000000000000000000, 0.000000000000000000 ) ) ;
#120 = DATE_TIME_ROLE ( 'creation_date' ) ;
#121 = CARTESIAN_POINT ( 'NONE',  ( -3.000000000000000000, 0.000000000000000000, -40.00000000000000000 ) ) ;
#122 = CYLINDRICAL_SURFACE ( 'NONE', #109, 40.00000000000000000 ) ;
#123 = MECHANICAL_CONTEXT ( 'NONE', #39, 'mechanical' ) ;
#124 = EDGE_CURVE ( 'NONE', #93, #249, #27, .T. ) ;
#125 = DIRECTION ( 'NONE',  ( 0.000000000000000000, 0.000000000000000000, -1.000000000000000000 ) ) ;
#126 = DIRECTION ( 'NONE',  ( 0.000000000000000000, 0.000000000000000000, -1.000000000000000000 ) ) ;
#127 = PERSON_AND_ORGANIZATION_ROLE ( 'creator' ) ;
#128 = CARTESIAN_POINT ( 'NONE',  ( -3.000000000000000000, 4.898587196589413026E-15, 40.00000000000000000 ) ) ;
#129 = PRODUCT_DEFINITION_FORMATION_WITH_SPECIFIED_SOURCE ( 'ANY', '', #182, .NOT_KNOWN. ) ;
#130 = CARTESIAN_POINT ( 'NONE',  ( -3.000000000000000000, 0.000000000000000000, 0.000000000000000000 ) ) ;
#131 = ORIENTED_EDGE ( 'NONE', *, *, #35, .F. ) ;
#132 = ADVANCED_FACE ( 'NONE', ( #179 ), #147, .T. ) ;
#133 = CIRCLE ( 'NONE', #17, 73.50000000000000000 ) ;
#134 = VERTEX_POINT ( 'NONE', #9 ) ;
#135 = CIRCLE ( 'NONE', #91, 73.50000000000000000 ) ;
#136 = ORIENTED_EDGE ( 'NONE', *, *, #52, .T. ) ;
#137 = PERSON_AND_ORGANIZATION_ROLE ( 'classification_officer' ) ;
#138 = DIRECTION ( 'NONE',  ( 1.000000000000000000, -0.000000000000000000, -0.000000000000000000 ) ) ;
#139 = CC_DESIGN_DATE_AND_TIME_ASSIGNMENT ( #64, #160, ( #167 ) ) ;
#140 = LINE ( 'NONE', #21, #184 ) ;
#141 = FACE_BOUND ( 'NONE', #149, .T. ) ;
#142 = EDGE_CURVE ( 'NONE', #55, #157, #2, .T. ) ;
#143 = APPROVAL_ROLE ( '' ) ;
#144 = CYLINDRICAL_SURFACE ( 'NONE', #226, 73.50000000000000000 ) ;
#145 = SECURITY_CLASSIFICATION_LEVEL ( 'unclassified' ) ;
#146 = DIRECTION ( 'NONE',  ( 1.000000000000000000, 0.000000000000000000, 0.000000000000000000 ) ) ;
#147 = CYLINDRICAL_SURFACE ( 'NONE', #23, 73.50000000000000000 ) ;
#148 =( GEOMETRIC_REPRESENTATION_CONTEXT ( 3 ) GLOBAL_UNCERTAINTY_ASSIGNED_CONTEXT ( ( #44 ) ) GLOBAL_UNIT_ASSIGNED_CONTEXT ( ( #5, #217, #215 ) ) REPRESENTATION_CONTEXT ( 'NONE', 'WORKASPACE' ) );
#149 = EDGE_LOOP ( 'NONE', ( #111, #76 ) ) ;
#150 = VERTEX_POINT ( 'NONE', #48 ) ;
#151 = CC_DESIGN_PERSON_AND_ORGANIZATION_ASSIGNMENT ( #6, #86, ( #209 ) ) ;
#152 = ORIENTED_EDGE ( 'NONE', *, *, #204, .T. ) ;
#153 = ORIENTED_EDGE ( 'NONE', *, *, #77, .F. ) ;
#154 = DIRECTION ( 'NONE',  ( 0.000000000000000000, 0.000000000000000000, -1.000000000000000000 ) ) ;
#155 = VECTOR ( 'NONE', #34, 1000.000000000000000 ) ;
#156 = FACE_OUTER_BOUND ( 'NONE', #227, .T. ) ;
#157 = VERTEX_POINT ( 'NONE', #128 ) ;
#158 = AXIS2_PLACEMENT_3D ( 'NONE', #172, #40, #83 ) ;
#159 = APPROVAL_STATUS ( 'not_yet_approved' ) ;
#160 = DATE_TIME_ROLE ( 'classification_date' ) ;
#161 = COORDINATED_UNIVERSAL_TIME_OFFSET ( 10, 0, .AHEAD. ) ;
#162 = CIRCLE ( 'NONE', #114, 40.00000000000000000 ) ;
#163 = LOCAL_TIME ( 10, 19, 10.00000000000000000, #81 ) ;
#164 = DIRECTION ( 'NONE',  ( 1.000000000000000000, 0.000000000000000000, 0.000000000000000000 ) ) ;
#165 = DIRECTION ( 'NONE',  ( 0.000000000000000000, 0.000000000000000000, -1.000000000000000000 ) ) ;
#166 = CC_DESIGN_PERSON_AND_ORGANIZATION_ASSIGNMENT ( #25, #137, ( #167 ) ) ;
#167 = SECURITY_CLASSIFICATION ( '', '', #145 ) ;
#168 = VERTEX_POINT ( 'NONE', #108 ) ;
#169 = EDGE_LOOP ( 'NONE', ( #74, #110 ) ) ;
#170 = ORIENTED_EDGE ( 'NONE', *, *, #196, .T. ) ;
#171 = ADVANCED_FACE ( 'NONE', ( #180 ), #122, .F. ) ;
#172 = CARTESIAN_POINT ( 'NONE',  ( -3.000000000000000000, 0.000000000000000000, 0.000000000000000000 ) ) ;
#173 = DIRECTION ( 'NONE',  ( 0.000000000000000000, 0.000000000000000000, -1.000000000000000000 ) ) ;
#174 = APPLICATION_PROTOCOL_DEFINITION ( 'international standard', 'config_control_design', 1994, #244 ) ;
#175 = DIRECTION ( 'NONE',  ( 1.000000000000000000, 0.000000000000000000, 0.000000000000000000 ) ) ;
#176 = CLOSED_SHELL ( 'NONE', ( #132, #171, #118, #112, #24, #208 ) ) ;
#177 = DIRECTION ( 'NONE',  ( 1.000000000000000000, 0.000000000000000000, 0.000000000000000000 ) ) ;
#178 = COORDINATED_UNIVERSAL_TIME_OFFSET ( 10, 0, .AHEAD. ) ;
#179 = FACE_OUTER_BOUND ( 'NONE', #186, .T. ) ;
#180 = FACE_OUTER_BOUND ( 'NONE', #30, .T. ) ;
#181 = LOCAL_TIME ( 10, 19, 10.00000000000000000, #67 ) ;
#182 = PRODUCT ( 'OEM-80NB-JIS30K-3_REV_', 'OEM-80NB-JIS30K-3_REV_', '', ( #123 ) ) ;
#183 = EDGE_CURVE ( 'NONE', #150, #168, #135, .T. ) ;
#184 = VECTOR ( 'NONE', #102, 1000.000000000000000 ) ;
#185 = ORIENTED_EDGE ( 'NONE', *, *, #183, .T. ) ;
#186 = EDGE_LOOP ( 'NONE', ( #152, #94, #73, #99 ) ) ;
#187 = ORIENTED_EDGE ( 'NONE', *, *, #231, .F. ) ;
#188 = ORIENTED_EDGE ( 'NONE', *, *, #35, .T. ) ;
#189 = CARTESIAN_POINT ( 'NONE',  ( 0.000000000000000000, 0.000000000000000000, 0.000000000000000000 ) ) ;
#190 = CC_DESIGN_PERSON_AND_ORGANIZATION_ASSIGNMENT ( #116, #127, ( #129 ) ) ;
#191 = LINE ( 'NONE', #18, #53 ) ;
#192 = CALENDAR_DATE ( 2026, 20, 1 ) ;
#193 = CARTESIAN_POINT ( 'NONE',  ( -3.000000000000000000, 0.000000000000000000, 0.000000000000000000 ) ) ;
#194 = APPROVAL_DATE_TIME ( #107, #70 ) ;
#195 = CARTESIAN_POINT ( 'NONE',  ( 0.000000000000000000, 0.000000000000000000, 0.000000000000000000 ) ) ;
#196 = EDGE_CURVE ( 'NONE', #229, #150, #239, .T. ) ;
#197 = AXIS2_PLACEMENT_3D ( 'NONE', #189, #4, #41 ) ;
#198 = DIRECTION ( 'NONE',  ( 1.000000000000000000, -0.000000000000000000, -0.000000000000000000 ) ) ;
#199 = PERSON_AND_ORGANIZATION_ROLE ( 'design_owner' ) ;
#200 = DIRECTION ( 'NONE',  ( 1.000000000000000000, 0.000000000000000000, 0.000000000000000000 ) ) ;
#201 = PERSON_AND_ORGANIZATION ( #15, #98 ) ;
#202 = EDGE_CURVE ( 'NONE', #134, #229, #230, .T. ) ;
#203 = CARTESIAN_POINT ( 'NONE',  ( -3.000000000000000000, 0.000000000000000000, 0.000000000000000000 ) ) ;
#204 = EDGE_CURVE ( 'NONE', #229, #134, #133, .T. ) ;
#205 = AXIS2_PLACEMENT_3D ( 'NONE', #89, #224, #126 ) ;
#206 = ORIENTED_EDGE ( 'NONE', *, *, #72, .T. ) ;
#207 = ORIENTED_EDGE ( 'NONE', *, *, #72, .F. ) ;
#208 = ADVANCED_FACE ( 'NONE', ( #103 ), #144, .T. ) ;
#209 = PRODUCT_DEFINITION ( 'UNKNOWN', '', #129, #236 ) ;
#210 = PERSON_AND_ORGANIZATION ( #15, #98 ) ;
#211 = CIRCLE ( 'NONE', #71, 40.00000000000000000 ) ;
#212 = LOCAL_TIME ( 10, 19, 10.00000000000000000, #161 ) ;
#213 = DIRECTION ( 'NONE',  ( 0.000000000000000000, 0.000000000000000000, -1.000000000000000000 ) ) ;
#214 = PERSON_AND_ORGANIZATION ( #15, #98 ) ;
#215 =( NAMED_UNIT ( * ) SI_UNIT ( $, .STERADIAN. ) SOLID_ANGLE_UNIT ( ) );
#216 = CARTESIAN_POINT ( 'NONE',  ( 0.000000000000000000, 0.000000000000000000, 0.000000000000000000 ) ) ;
#217 =( NAMED_UNIT ( * ) PLANE_ANGLE_UNIT ( ) SI_UNIT ( $, .RADIAN. ) );
#218 = APPROVAL ( #8, 'UNSPECIFIED' ) ;
#219 = LOCAL_TIME ( 10, 19, 10.00000000000000000, #178 ) ;
#220 = PERSON_AND_ORGANIZATION_ROLE ( 'design_supplier' ) ;
#221 = DIRECTION ( 'NONE',  ( 0.000000000000000000, 0.000000000000000000, -1.000000000000000000 ) ) ;
#222 = PRODUCT_RELATED_PRODUCT_CATEGORY ( 'detail', '', ( #182 ) ) ;
#223 = DIRECTION ( 'NONE',  ( 1.000000000000000000, 0.000000000000000000, 0.000000000000000000 ) ) ;
#224 = DIRECTION ( 'NONE',  ( 1.000000000000000000, 0.000000000000000000, 0.000000000000000000 ) ) ;
#225 = EDGE_LOOP ( 'NONE', ( #131, #16 ) ) ;
#226 = AXIS2_PLACEMENT_3D ( 'NONE', #62, #138, #213 ) ;
#227 = EDGE_LOOP ( 'NONE', ( #185, #206 ) ) ;
#228 = ORIENTED_EDGE ( 'NONE', *, *, #77, .T. ) ;
#229 = VERTEX_POINT ( 'NONE', #7 ) ;
#230 = CIRCLE ( 'NONE', #205, 73.50000000000000000 ) ;
#231 = EDGE_CURVE ( 'NONE', #157, #55, #162, .T. ) ;
#232 = PLANE ( 'NONE',  #101 ) ;
#233 = APPROVAL ( #159, 'UNSPECIFIED' ) ;
#234 = LINE ( 'NONE', #61, #11 ) ;
#235 = PERSON_AND_ORGANIZATION ( #15, #98 ) ;
#236 = DESIGN_CONTEXT ( 'detailed design', #244, 'design' ) ;
#237 = CARTESIAN_POINT ( 'NONE',  ( 0.000000000000000000, 0.000000000000000000, 0.000000000000000000 ) ) ;
#238 = SHAPE_DEFINITION_REPRESENTATION ( #82, #84 ) ;
#239 = LINE ( 'NONE', #78, #155 ) ;
#240 = APPLICATION_PROTOCOL_DEFINITION ( 'international standard', 'config_control_design', 1994, #39 ) ;
#241 = DATE_AND_TIME ( #100, #212 ) ;
#242 = APPROVAL_PERSON_ORGANIZATION ( #210, #70, #143 ) ;
#243 = DIRECTION ( 'NONE',  ( 0.000000000000000000, 0.000000000000000000, -1.000000000000000000 ) ) ;
#244 = APPLICATION_CONTEXT ( 'configuration controlled 3d designs of mechanical parts and assemblies' ) ;
#245 = DIRECTION ( 'NONE',  ( 0.000000000000000000, 0.000000000000000000, -1.000000000000000000 ) ) ;
#246 = FACE_OUTER_BOUND ( 'NONE', #169, .T. ) ;
#247 = AXIS2_PLACEMENT_3D ( 'NONE', #130, #200, #26 ) ;
#248 = EDGE_LOOP ( 'NONE', ( #51, #14, #170, #207 ) ) ;
#249 = VERTEX_POINT ( 'NONE', #66 ) ;
ENDSEC;
END-ISO-10303-21;
