ISO-10303-21;
HEADER;
FILE_DESCRIPTION (( 'STEP AP203' ),
    '1' );
FILE_NAME ('OEM-80X40-LR-40-316L_REV_.step',
    '2026-03-04T02:53:40',
    ( '' ),
    ( '' ),
    'SwSTEP 2.0',
    'SolidWorks 2025',
    '' );
FILE_SCHEMA (( 'CONFIG_CONTROL_DESIGN' ));
ENDSEC;

DATA;
#1 = DIRECTION ( 'NONE',  ( 0.000000000000000000, 0.000000000000000000, -1.000000000000000000 ) ) ;
#2 = CARTESIAN_POINT ( 'NONE',  ( 0.000000000000000000, 69.54999999999999716, -5.443555022209988064E-15 ) ) ;
#3 = EDGE_LOOP ( 'NONE', ( #73, #16, #128, #34 ) ) ;
#4 = PERSON_AND_ORGANIZATION ( #63, #92 ) ;
#5 = CLOSED_SHELL ( 'NONE', ( #236, #74, #56, #134, #213, #117 ) ) ;
#6 = APPROVAL_ROLE ( '' ) ;
#7 = EDGE_CURVE ( 'NONE', #181, #90, #228, .T. ) ;
#8 = COORDINATED_UNIVERSAL_TIME_OFFSET ( 10, 0, .AHEAD. ) ;
#9 = CALENDAR_DATE ( 2026, 4, 3 ) ;
#10 = FACE_OUTER_BOUND ( 'NONE', #3, .T. ) ;
#11 = CC_DESIGN_SECURITY_CLASSIFICATION ( #126, ( #21 ) ) ;
#12 = ORIENTED_EDGE ( 'NONE', *, *, #124, .T. ) ;
#13 = DIRECTION ( 'NONE',  ( 1.000000000000000000, 0.000000000000000000, 0.000000000000000000 ) ) ;
#14 = ORIENTED_EDGE ( 'NONE', *, *, #111, .F. ) ;
#15 = EDGE_CURVE ( 'NONE', #112, #245, #35, .T. ) ;
#16 = ORIENTED_EDGE ( 'NONE', *, *, #124, .F. ) ;
#17 = DIRECTION ( 'NONE',  ( 0.000000000000000000, 0.000000000000000000, -1.000000000000000000 ) ) ;
#18 = APPLICATION_CONTEXT ( 'configuration controlled 3d designs of mechanical parts and assemblies' ) ;
#19 = TOROIDAL_SURFACE ( 'NONE', #251, 114.0000000000000000, 38.96000000000000796 ) ;
#20 = CARTESIAN_POINT ( 'NONE',  ( -73.27778750426502086, 87.32906651556389477, 0.000000000000000000 ) ) ;
#21 = PRODUCT_DEFINITION_FORMATION_WITH_SPECIFIED_SOURCE ( 'ANY', '', #163, .NOT_KNOWN. ) ;
#22 = DIRECTION ( 'NONE',  ( 1.000000000000000000, 0.000000000000000000, 0.000000000000000000 ) ) ;
#23 = ORIENTED_EDGE ( 'NONE', *, *, #37, .F. ) ;
#24 = CIRCLE ( 'NONE', #177, 152.9600000000000080 ) ;
#25 = PERSON_AND_ORGANIZATION_ROLE ( 'creator' ) ;
#26 = LOCAL_TIME ( 13, 53, 40.00000000000000000, #180 ) ;
#27 = COORDINATED_UNIVERSAL_TIME_OFFSET ( 10, 0, .AHEAD. ) ;
#28 = DATE_TIME_ROLE ( 'classification_date' ) ;
#29 = APPLICATION_CONTEXT ( 'configuration controlled 3d designs of mechanical parts and assemblies' ) ;
#30 = EDGE_CURVE ( 'NONE', #90, #181, #72, .T. ) ;
#31 = DIRECTION ( 'NONE',  ( 0.000000000000000000, 0.000000000000000000, -1.000000000000000000 ) ) ;
#32 = ORIENTED_EDGE ( 'NONE', *, *, #247, .F. ) ;
#33 = CARTESIAN_POINT ( 'NONE',  ( 0.000000000000000000, 114.0000000000000000, 0.000000000000000000 ) ) ;
#34 = ORIENTED_EDGE ( 'NONE', *, *, #120, .T. ) ;
#35 = CIRCLE ( 'NONE', #41, 38.96000000000000796 ) ;
#36 = CC_DESIGN_APPROVAL ( #173, ( #126 ) ) ;
#37 = EDGE_CURVE ( 'NONE', #181, #54, #216, .T. ) ;
#38 = ORIENTED_EDGE ( 'NONE', *, *, #37, .T. ) ;
#39 = MECHANICAL_CONTEXT ( 'NONE', #29, 'mechanical' ) ;
#40 = FACE_BOUND ( 'NONE', #55, .T. ) ;
#41 = AXIS2_PLACEMENT_3D ( 'NONE', #127, #206, #31 ) ;
#42 = CC_DESIGN_APPROVAL ( #222, ( #21 ) ) ;
#43 = SECURITY_CLASSIFICATION_LEVEL ( 'unclassified' ) ;
#44 = DATE_AND_TIME ( #9, #241 ) ;
#45 = AXIS2_PLACEMENT_3D ( 'NONE', #106, #164, #121 ) ;
#46 = CALENDAR_DATE ( 2026, 4, 3 ) ;
#47 = PERSON_AND_ORGANIZATION_ROLE ( 'classification_officer' ) ;
#48 = AXIS2_PLACEMENT_3D ( 'NONE', #59, #87, #1 ) ;
#49 = CC_DESIGN_PERSON_AND_ORGANIZATION_ASSIGNMENT ( #113, #89, ( #163 ) ) ;
#50 = CARTESIAN_POINT ( 'NONE',  ( 0.000000000000000000, 114.0000000000000000, 0.000000000000000000 ) ) ;
#51 = DIRECTION ( 'NONE',  ( 1.000000000000000000, 0.000000000000000000, 0.000000000000000000 ) ) ;
#52 = ORIENTED_EDGE ( 'NONE', *, *, #30, .F. ) ;
#53 = CIRCLE ( 'NONE', #191, 75.03999999999999204 ) ;
#54 = VERTEX_POINT ( 'NONE', #154 ) ;
#55 = EDGE_LOOP ( 'NONE', ( #12, #207 ) ) ;
#56 = ADVANCED_FACE ( 'NONE', ( #10 ), #19, .F. ) ;
#57 = DIRECTION ( 'NONE',  ( 0.000000000000000000, 0.000000000000000000, 1.000000000000000000 ) ) ;
#58 = ORIENTED_EDGE ( 'NONE', *, *, #100, .F. ) ;
#59 = CARTESIAN_POINT ( 'NONE',  ( 0.000000000000000000, 114.0000000000000000, 0.000000000000000000 ) ) ;
#60 = APPROVAL_ROLE ( '' ) ;
#61 = APPROVAL_PERSON_ORGANIZATION ( #238, #222, #60 ) ;
#62 = EDGE_LOOP ( 'NONE', ( #32, #174, #239, #14 ) ) ;
#63 = PERSON ( 'UNSPECIFIED', 'UNSPECIFIED', 'UNSPECIFIED', ('UNSPECIFIED'), ('UNSPECIFIED'), ('UNSPECIFIED') ) ;
#64 = CALENDAR_DATE ( 2026, 4, 3 ) ;
#65 = ORIENTED_EDGE ( 'NONE', *, *, #15, .F. ) ;
#66 = CARTESIAN_POINT ( 'NONE',  ( 0.000000000000000000, 158.4500000000000171, 0.000000000000000000 ) ) ;
#67 = CC_DESIGN_DATE_AND_TIME_ASSIGNMENT ( #44, #96, ( #253 ) ) ;
#68 = CARTESIAN_POINT ( 'NONE',  ( -98.32079277765242864, 117.1741580194794352, 0.000000000000000000 ) ) ;
#69 = UNCERTAINTY_MEASURE_WITH_UNIT (LENGTH_MEASURE( 1.000000000000000082E-05 ), #212, 'distance_accuracy_value', 'NONE');
#70 = DIRECTION ( 'NONE',  ( 0.000000000000000000, 0.000000000000000000, -1.000000000000000000 ) ) ;
#71 = CARTESIAN_POINT ( 'NONE',  ( 0.000000000000000000, 0.000000000000000000, 0.000000000000000000 ) ) ;
#72 = CIRCLE ( 'NONE', #240, 44.45000000000000995 ) ;
#73 = ORIENTED_EDGE ( 'NONE', *, *, #208, .F. ) ;
#74 = ADVANCED_FACE ( 'NONE', ( #99 ), #217, .T. ) ;
#75 = CARTESIAN_POINT ( 'NONE',  ( -101.8496967548315126, 121.3797420122026267, 0.000000000000000000 ) ) ;
#76 = ORIENTED_EDGE ( 'NONE', *, *, #7, .T. ) ;
#77 = APPLICATION_PROTOCOL_DEFINITION ( 'international standard', 'config_control_design', 1994, #29 ) ;
#78 = ADVANCED_BREP_SHAPE_REPRESENTATION ( 'OEM-80X40-LR-40-316L_REV_', ( #159, #122 ), #205 ) ;
#79 = APPROVAL_DATE_TIME ( #178, #219 ) ;
#80 = APPROVAL_PERSON_ORGANIZATION ( #194, #219, #95 ) ;
#81 = COORDINATED_UNIVERSAL_TIME_OFFSET ( 10, 0, .AHEAD. ) ;
#82 = DATE_AND_TIME ( #218, #190 ) ;
#83 = AXIS2_PLACEMENT_3D ( 'NONE', #50, #123, #145 ) ;
#84 = PRODUCT_DEFINITION_SHAPE ( 'NONE', 'NONE',  #253 ) ;
#85 = DESIGN_CONTEXT ( 'detailed design', #18, 'design' ) ;
#86 = FACE_BOUND ( 'NONE', #167, .T. ) ;
#87 = DIRECTION ( 'NONE',  ( -1.000000000000000000, -0.000000000000000000, -0.000000000000000000 ) ) ;
#88 = DIRECTION ( 'NONE',  ( 0.7660444431189816772, 0.6427876096865351441, 0.000000000000000000 ) ) ;
#89 = PERSON_AND_ORGANIZATION_ROLE ( 'design_owner' ) ;
#90 = VERTEX_POINT ( 'NONE', #66 ) ;
#91 = FACE_OUTER_BOUND ( 'NONE', #62, .T. ) ;
#92 = ORGANIZATION ( 'UNSPECIFIED', 'UNSPECIFIED', '' ) ;
#93 =( NAMED_UNIT ( * ) PLANE_ANGLE_UNIT ( ) SI_UNIT ( $, .RADIAN. ) );
#94 = APPROVAL_DATE_TIME ( #199, #173 ) ;
#95 = APPROVAL_ROLE ( '' ) ;
#96 = DATE_TIME_ROLE ( 'creation_date' ) ;
#97 = AXIS2_PLACEMENT_3D ( 'NONE', #71, #226, #143 ) ;
#98 = DATE_AND_TIME ( #64, #156 ) ;
#99 = FACE_OUTER_BOUND ( 'NONE', #210, .T. ) ;
#100 = EDGE_CURVE ( 'NONE', #184, #54, #220, .T. ) ;
#101 = CARTESIAN_POINT ( 'NONE',  ( 0.000000000000000000, 0.000000000000000000, -5.443555022209986486E-15 ) ) ;
#102 = CC_DESIGN_DATE_AND_TIME_ASSIGNMENT ( #82, #28, ( #126 ) ) ;
#103 = AXIS2_PLACEMENT_3D ( 'NONE', #101, #136, #139 ) ;
#104 = AXIS2_PLACEMENT_3D ( 'NONE', #105, #147, #229 ) ;
#105 = CARTESIAN_POINT ( 'NONE',  ( -73.27778750426502086, 87.32906651556389477, 0.000000000000000000 ) ) ;
#106 = CARTESIAN_POINT ( 'NONE',  ( -73.27778750426502086, 87.32906651556389477, 0.000000000000000000 ) ) ;
#107 = CIRCLE ( 'NONE', #230, 44.45000000000000995 ) ;
#108 = CARTESIAN_POINT ( 'NONE',  ( 0.000000000000000000, 114.0000000000000000, 0.000000000000000000 ) ) ;
#109 = ORIENTED_EDGE ( 'NONE', *, *, #30, .T. ) ;
#110 = CARTESIAN_POINT ( 'NONE',  ( 0.000000000000000000, 0.000000000000000000, 0.000000000000000000 ) ) ;
#111 = EDGE_CURVE ( 'NONE', #155, #245, #53, .T. ) ;
#112 = VERTEX_POINT ( 'NONE', #68 ) ;
#113 = PERSON_AND_ORGANIZATION ( #63, #92 ) ;
#114 = DIRECTION ( 'NONE',  ( 0.000000000000000000, 0.000000000000000000, 1.000000000000000000 ) ) ;
#115 = TOROIDAL_SURFACE ( 'NONE', #169, 114.0000000000000000, 38.96000000000000796 ) ;
#116 = APPROVAL_STATUS ( 'not_yet_approved' ) ;
#117 = ADVANCED_FACE ( 'NONE', ( #185 ), #144, .T. ) ;
#118 = PERSON_AND_ORGANIZATION ( #63, #92 ) ;
#119 = PERSON_AND_ORGANIZATION ( #63, #92 ) ;
#120 = EDGE_CURVE ( 'NONE', #245, #112, #252, .T. ) ;
#121 = DIRECTION ( 'NONE',  ( 0.000000000000000000, 0.000000000000000000, -1.000000000000000000 ) ) ;
#122 = AXIS2_PLACEMENT_3D ( 'NONE', #110, #231, #235 ) ;
#123 = DIRECTION ( 'NONE',  ( -1.000000000000000000, -0.000000000000000000, -0.000000000000000000 ) ) ;
#124 = EDGE_CURVE ( 'NONE', #155, #142, #165, .T. ) ;
#125 = PLANE ( 'NONE',  #175 ) ;
#126 = SECURITY_CLASSIFICATION ( '', '', #43 ) ;
#127 = CARTESIAN_POINT ( 'NONE',  ( -73.27778750426502086, 87.32906651556389477, 0.000000000000000000 ) ) ;
#128 = ORIENTED_EDGE ( 'NONE', *, *, #111, .T. ) ;
#129 = CARTESIAN_POINT ( 'NONE',  ( 0.000000000000000000, 0.000000000000000000, 0.000000000000000000 ) ) ;
#130 = ORIENTED_EDGE ( 'NONE', *, *, #120, .F. ) ;
#131 = ORIENTED_EDGE ( 'NONE', *, *, #195, .T. ) ;
#132 = DIRECTION ( 'NONE',  ( 0.000000000000000000, 0.000000000000000000, -1.000000000000000000 ) ) ;
#133 = DIRECTION ( 'NONE',  ( 0.000000000000000000, 0.000000000000000000, 1.000000000000000000 ) ) ;
#134 = ADVANCED_FACE ( 'NONE', ( #86, #225 ), #125, .F. ) ;
#135 = PERSON_AND_ORGANIZATION ( #63, #92 ) ;
#136 = DIRECTION ( 'NONE',  ( 0.000000000000000000, 0.000000000000000000, 1.000000000000000000 ) ) ;
#137 = ORIENTED_EDGE ( 'NONE', *, *, #195, .F. ) ;
#138 = CC_DESIGN_PERSON_AND_ORGANIZATION_ASSIGNMENT ( #118, #153, ( #21 ) ) ;
#139 = DIRECTION ( 'NONE',  ( 1.000000000000000000, 0.000000000000000000, 0.000000000000000000 ) ) ;
#140 = APPROVAL_STATUS ( 'not_yet_approved' ) ;
#141 = CIRCLE ( 'NONE', #48, 38.96000000000000796 ) ;
#142 = VERTEX_POINT ( 'NONE', #176 ) ;
#143 = DIRECTION ( 'NONE',  ( 1.000000000000000000, 0.000000000000000000, 0.000000000000000000 ) ) ;
#144 = TOROIDAL_SURFACE ( 'NONE', #197, 114.0000000000000000, 44.45000000000000995 ) ;
#145 = DIRECTION ( 'NONE',  ( 0.000000000000000000, 0.000000000000000000, -1.000000000000000000 ) ) ;
#146 = DIRECTION ( 'NONE',  ( 0.000000000000000000, 0.000000000000000000, 1.000000000000000000 ) ) ;
#147 = DIRECTION ( 'NONE',  ( 0.7660444431189816772, 0.6427876096865352551, 0.000000000000000000 ) ) ;
#148 = AXIS2_PLACEMENT_3D ( 'NONE', #166, #250, #70 ) ;
#149 = CARTESIAN_POINT ( 'NONE',  ( 0.000000000000000000, 75.03999999999999204, -4.771223929478089166E-15 ) ) ;
#150 = CARTESIAN_POINT ( 'NONE',  ( 0.000000000000000000, 0.000000000000000000, 0.000000000000000000 ) ) ;
#151 = CIRCLE ( 'NONE', #201, 158.4500000000000171 ) ;
#152 = DIRECTION ( 'NONE',  ( 0.000000000000000000, 0.000000000000000000, -1.000000000000000000 ) ) ;
#153 = PERSON_AND_ORGANIZATION_ROLE ( 'design_supplier' ) ;
#154 = CARTESIAN_POINT ( 'NONE',  ( -44.70587825369852197, 53.27839101892515572, -5.443555022209986486E-15 ) ) ;
#155 = VERTEX_POINT ( 'NONE', #149 ) ;
#156 = LOCAL_TIME ( 13, 53, 40.00000000000000000, #81 ) ;
#157 = SHAPE_DEFINITION_REPRESENTATION ( #84, #78 ) ;
#158 = APPROVAL_STATUS ( 'not_yet_approved' ) ;
#159 = MANIFOLD_SOLID_BREP ( 'Sweep1', #5 ) ;
#160 = CARTESIAN_POINT ( 'NONE',  ( 0.000000000000000000, 0.000000000000000000, 0.000000000000000000 ) ) ;
#161 = COORDINATED_UNIVERSAL_TIME_OFFSET ( 10, 0, .AHEAD. ) ;
#162 = LOCAL_TIME ( 13, 53, 40.00000000000000000, #161 ) ;
#163 = PRODUCT ( 'OEM-80X40-LR-40-316L_REV_', 'OEM-80X40-LR-40-316L_REV_', '', ( #39 ) ) ;
#164 = DIRECTION ( 'NONE',  ( -0.7660444431189816772, -0.6427876096865352551, -0.000000000000000000 ) ) ;
#165 = CIRCLE ( 'NONE', #83, 38.96000000000000796 ) ;
#166 = CARTESIAN_POINT ( 'NONE',  ( 0.000000000000000000, 114.0000000000000000, 0.000000000000000000 ) ) ;
#167 = EDGE_LOOP ( 'NONE', ( #130, #65 ) ) ;
#168 = DIRECTION ( 'NONE',  ( 1.000000000000000000, 0.000000000000000000, 0.000000000000000000 ) ) ;
#169 = AXIS2_PLACEMENT_3D ( 'NONE', #150, #114, #22 ) ;
#170 = DIRECTION ( 'NONE',  ( 1.000000000000000000, 0.000000000000000000, 0.000000000000000000 ) ) ;
#171 = EDGE_CURVE ( 'NONE', #54, #184, #107, .T. ) ;
#172 = APPLICATION_PROTOCOL_DEFINITION ( 'international standard', 'config_control_design', 1994, #18 ) ;
#173 = APPROVAL ( #116, 'UNSPECIFIED' ) ;
#174 = ORIENTED_EDGE ( 'NONE', *, *, #208, .T. ) ;
#175 = AXIS2_PLACEMENT_3D ( 'NONE', #204, #88, #152 ) ;
#176 = CARTESIAN_POINT ( 'NONE',  ( 0.000000000000000000, 152.9600000000000080, 0.000000000000000000 ) ) ;
#177 = AXIS2_PLACEMENT_3D ( 'NONE', #209, #133, #170 ) ;
#178 = DATE_AND_TIME ( #46, #26 ) ;
#179 = PRODUCT_RELATED_PRODUCT_CATEGORY ( 'detail', '', ( #163 ) ) ;
#180 = COORDINATED_UNIVERSAL_TIME_OFFSET ( 10, 0, .AHEAD. ) ;
#181 = VERTEX_POINT ( 'NONE', #2 ) ;
#182 = APPROVAL_PERSON_ORGANIZATION ( #200, #173, #6 ) ;
#183 = CC_DESIGN_PERSON_AND_ORGANIZATION_ASSIGNMENT ( #119, #25, ( #253 ) ) ;
#184 = VERTEX_POINT ( 'NONE', #75 ) ;
#185 = FACE_OUTER_BOUND ( 'NONE', #203, .T. ) ;
#186 = EDGE_LOOP ( 'NONE', ( #76, #109 ) ) ;
#187 = DIRECTION ( 'NONE',  ( 1.000000000000000000, 0.000000000000000000, 0.000000000000000000 ) ) ;
#188 = DIRECTION ( 'NONE',  ( 0.000000000000000000, 0.000000000000000000, 1.000000000000000000 ) ) ;
#189 =( NAMED_UNIT ( * ) SI_UNIT ( $, .STERADIAN. ) SOLID_ANGLE_UNIT ( ) );
#190 = LOCAL_TIME ( 13, 53, 40.00000000000000000, #8 ) ;
#191 = AXIS2_PLACEMENT_3D ( 'NONE', #223, #188, #51 ) ;
#192 = ORIENTED_EDGE ( 'NONE', *, *, #100, .T. ) ;
#193 = ORIENTED_EDGE ( 'NONE', *, *, #171, .F. ) ;
#194 = PERSON_AND_ORGANIZATION ( #63, #92 ) ;
#195 = EDGE_CURVE ( 'NONE', #90, #184, #151, .T. ) ;
#196 = CARTESIAN_POINT ( 'NONE',  ( -48.23478223087760597, 57.48397501164836143, -4.771223929478089166E-15 ) ) ;
#197 = AXIS2_PLACEMENT_3D ( 'NONE', #249, #224, #13 ) ;
#198 = CC_DESIGN_PERSON_AND_ORGANIZATION_ASSIGNMENT ( #4, #202, ( #21 ) ) ;
#199 = DATE_AND_TIME ( #244, #162 ) ;
#200 = PERSON_AND_ORGANIZATION ( #63, #92 ) ;
#201 = AXIS2_PLACEMENT_3D ( 'NONE', #129, #57, #237 ) ;
#202 = PERSON_AND_ORGANIZATION_ROLE ( 'creator' ) ;
#203 = EDGE_LOOP ( 'NONE', ( #137, #233, #38, #211 ) ) ;
#204 = CARTESIAN_POINT ( 'NONE',  ( -73.27778750426502086, 87.32906651556389477, 0.000000000000000000 ) ) ;
#205 =( GEOMETRIC_REPRESENTATION_CONTEXT ( 3 ) GLOBAL_UNCERTAINTY_ASSIGNED_CONTEXT ( ( #69 ) ) GLOBAL_UNIT_ASSIGNED_CONTEXT ( ( #212, #93, #189 ) ) REPRESENTATION_CONTEXT ( 'NONE', 'WORKASPACE' ) );
#206 = DIRECTION ( 'NONE',  ( -0.7660444431189816772, -0.6427876096865352551, -0.000000000000000000 ) ) ;
#207 = ORIENTED_EDGE ( 'NONE', *, *, #247, .T. ) ;
#208 = EDGE_CURVE ( 'NONE', #142, #112, #24, .T. ) ;
#209 = CARTESIAN_POINT ( 'NONE',  ( 0.000000000000000000, 0.000000000000000000, 0.000000000000000000 ) ) ;
#210 = EDGE_LOOP ( 'NONE', ( #52, #131, #192, #23 ) ) ;
#211 = ORIENTED_EDGE ( 'NONE', *, *, #171, .T. ) ;
#212 =( LENGTH_UNIT ( ) NAMED_UNIT ( * ) SI_UNIT ( .MILLI., .METRE. ) );
#213 = ADVANCED_FACE ( 'NONE', ( #40, #215 ), #234, .T. ) ;
#214 = DIRECTION ( 'NONE',  ( 0.7660444431189816772, 0.6427876096865352551, 0.000000000000000000 ) ) ;
#215 = FACE_OUTER_BOUND ( 'NONE', #186, .T. ) ;
#216 = CIRCLE ( 'NONE', #103, 69.54999999999999716 ) ;
#217 = TOROIDAL_SURFACE ( 'NONE', #97, 114.0000000000000000, 44.45000000000000995 ) ;
#218 = CALENDAR_DATE ( 2026, 4, 3 ) ;
#219 = APPROVAL ( #158, 'UNSPECIFIED' ) ;
#220 = CIRCLE ( 'NONE', #104, 44.45000000000000995 ) ;
#221 = APPROVAL_DATE_TIME ( #98, #222 ) ;
#222 = APPROVAL ( #140, 'UNSPECIFIED' ) ;
#223 = CARTESIAN_POINT ( 'NONE',  ( 0.000000000000000000, 0.000000000000000000, -4.771223929478089166E-15 ) ) ;
#224 = DIRECTION ( 'NONE',  ( 0.000000000000000000, 0.000000000000000000, 1.000000000000000000 ) ) ;
#225 = FACE_OUTER_BOUND ( 'NONE', #227, .T. ) ;
#226 = DIRECTION ( 'NONE',  ( 0.000000000000000000, 0.000000000000000000, 1.000000000000000000 ) ) ;
#227 = EDGE_LOOP ( 'NONE', ( #193, #58 ) ) ;
#228 = CIRCLE ( 'NONE', #148, 44.45000000000000995 ) ;
#229 = DIRECTION ( 'NONE',  ( 0.000000000000000000, 0.000000000000000000, -1.000000000000000000 ) ) ;
#230 = AXIS2_PLACEMENT_3D ( 'NONE', #20, #214, #132 ) ;
#231 = DIRECTION ( 'NONE',  ( 0.000000000000000000, 0.000000000000000000, 1.000000000000000000 ) ) ;
#232 = CC_DESIGN_PERSON_AND_ORGANIZATION_ASSIGNMENT ( #135, #47, ( #126 ) ) ;
#233 = ORIENTED_EDGE ( 'NONE', *, *, #7, .F. ) ;
#234 = PLANE ( 'NONE',  #248 ) ;
#235 = DIRECTION ( 'NONE',  ( 1.000000000000000000, 0.000000000000000000, 0.000000000000000000 ) ) ;
#236 = ADVANCED_FACE ( 'NONE', ( #91 ), #115, .F. ) ;
#237 = DIRECTION ( 'NONE',  ( 1.000000000000000000, 0.000000000000000000, 0.000000000000000000 ) ) ;
#238 = PERSON_AND_ORGANIZATION ( #63, #92 ) ;
#239 = ORIENTED_EDGE ( 'NONE', *, *, #15, .T. ) ;
#240 = AXIS2_PLACEMENT_3D ( 'NONE', #108, #187, #242 ) ;
#241 = LOCAL_TIME ( 13, 53, 40.00000000000000000, #27 ) ;
#242 = DIRECTION ( 'NONE',  ( 0.000000000000000000, 0.000000000000000000, -1.000000000000000000 ) ) ;
#243 = CC_DESIGN_APPROVAL ( #219, ( #253 ) ) ;
#244 = CALENDAR_DATE ( 2026, 4, 3 ) ;
#245 = VERTEX_POINT ( 'NONE', #196 ) ;
#246 = DIRECTION ( 'NONE',  ( 1.000000000000000000, 0.000000000000000000, 0.000000000000000000 ) ) ;
#247 = EDGE_CURVE ( 'NONE', #142, #155, #141, .T. ) ;
#248 = AXIS2_PLACEMENT_3D ( 'NONE', #33, #168, #17 ) ;
#249 = CARTESIAN_POINT ( 'NONE',  ( 0.000000000000000000, 0.000000000000000000, 0.000000000000000000 ) ) ;
#250 = DIRECTION ( 'NONE',  ( 1.000000000000000000, 0.000000000000000000, 0.000000000000000000 ) ) ;
#251 = AXIS2_PLACEMENT_3D ( 'NONE', #160, #146, #246 ) ;
#252 = CIRCLE ( 'NONE', #45, 38.96000000000000796 ) ;
#253 = PRODUCT_DEFINITION ( 'UNKNOWN', '', #21, #85 ) ;
ENDSEC;
END-ISO-10303-21;
