ISO-10303-21;
HEADER;
FILE_DESCRIPTION (( 'STEP AP203' ),
    '1' );
FILE_NAME ('OEM-80X45-LR-40-316L_REV_.step',
    '2026-03-04T02:54:15',
    ( '' ),
    ( '' ),
    'SwSTEP 2.0',
    'SolidWorks 2025',
    '' );
FILE_SCHEMA (( 'CONFIG_CONTROL_DESIGN' ));
ENDSEC;

DATA;
#1 = AXIS2_PLACEMENT_3D ( 'NONE', #160, #82, #36 ) ;
#2 = AXIS2_PLACEMENT_3D ( 'NONE', #233, #252, #157 ) ;
#3 = EDGE_CURVE ( 'NONE', #153, #110, #207, .T. ) ;
#4 = DIRECTION ( 'NONE',  ( 1.490810962382191498E-16, -3.562975046935668797E-16, -1.000000000000000000 ) ) ;
#5 = CIRCLE ( 'NONE', #79, 38.95000000000007390 ) ;
#6 = VERTEX_POINT ( 'NONE', #93 ) ;
#7 = CARTESIAN_POINT ( 'NONE',  ( -80.96372644585926537, 80.96372644586017486, 4.802527839793841888E-14 ) ) ;
#8 = ORIENTED_EDGE ( 'NONE', *, *, #238, .T. ) ;
#9 = CARTESIAN_POINT ( 'NONE',  ( -108.5055355730751785, 108.5055355730764006, -6.436226174815403513E-14 ) ) ;
#10 = ORIENTED_EDGE ( 'NONE', *, *, #238, .F. ) ;
#11 = CIRCLE ( 'NONE', #161, 44.45000000000008811 ) ;
#12 = DATE_AND_TIME ( #253, #122 ) ;
#13 = CARTESIAN_POINT ( 'NONE',  ( -53.42191731864338777, 53.42191731864398463, -3.645829433040158014E-14 ) ) ;
#14 = CC_DESIGN_PERSON_AND_ORGANIZATION_ASSIGNMENT ( #212, #33, ( #142 ) ) ;
#15 = SHAPE_DEFINITION_REPRESENTATION ( #115, #52 ) ;
#16 = TOROIDAL_SURFACE ( 'NONE', #165, 114.5000000000000000, 44.45000000000000995 ) ;
#17 = CIRCLE ( 'NONE', #72, 70.04999999999999716 ) ;
#18 = APPROVAL_PERSON_ORGANIZATION ( #69, #189, #108 ) ;
#19 = ADVANCED_FACE ( 'NONE', ( #172 ), #221, .F. ) ;
#20 = PERSON_AND_ORGANIZATION_ROLE ( 'creator' ) ;
#21 = TOROIDAL_SURFACE ( 'NONE', #173, 114.5000000000000000, 44.45000000000000995 ) ;
#22 = CARTESIAN_POINT ( 'NONE',  ( -1.199892069304458682E-13, 75.55000000000001137, -2.942541871161546115E-14 ) ) ;
#23 = EDGE_CURVE ( 'NONE', #154, #6, #40, .T. ) ;
#24 = PRODUCT ( 'OEM-80X45-LR-40-316L_REV_', 'OEM-80X45-LR-40-316L_REV_', '', ( #166 ) ) ;
#25 = FACE_BOUND ( 'NONE', #32, .T. ) ;
#26 = CC_DESIGN_DATE_AND_TIME_ASSIGNMENT ( #100, #54, ( #34 ) ) ;
#27 = APPROVAL_STATUS ( 'not_yet_approved' ) ;
#28 = CLOSED_SHELL ( 'NONE', ( #70, #99, #19, #159, #80, #64 ) ) ;
#29 = APPROVAL_PERSON_ORGANIZATION ( #74, #241, #152 ) ;
#30 = ORIENTED_EDGE ( 'NONE', *, *, #200, .F. ) ;
#31 = PERSON_AND_ORGANIZATION ( #91, #138 ) ;
#32 = EDGE_LOOP ( 'NONE', ( #184, #95 ) ) ;
#33 = PERSON_AND_ORGANIZATION_ROLE ( 'design_supplier' ) ;
#34 = SECURITY_CLASSIFICATION ( '', '', #216 ) ;
#35 = EDGE_LOOP ( 'NONE', ( #132, #139 ) ) ;
#36 = DIRECTION ( 'NONE',  ( 1.490810962382192730E-16, -4.440892098500583267E-16, -1.000000000000000000 ) ) ;
#37 = COORDINATED_UNIVERSAL_TIME_OFFSET ( 10, 0, .AHEAD. ) ;
#38 = DIRECTION ( 'NONE',  ( 1.000000000000000000, -2.302157758133557198E-16, 1.490810962382193716E-16 ) ) ;
#39 = DATE_TIME_ROLE ( 'creation_date' ) ;
#40 = CIRCLE ( 'NONE', #102, 44.45000000000008811 ) ;
#41 = EDGE_CURVE ( 'NONE', #116, #242, #198, .T. ) ;
#42 = AXIS2_PLACEMENT_3D ( 'NONE', #167, #243, #240 ) ;
#43 = CARTESIAN_POINT ( 'NONE',  ( -1.110223024625156540E-13, 114.5000000000000142, 5.084821452783177197E-14 ) ) ;
#44 = DIRECTION ( 'NONE',  ( -1.490810962382192730E-16, 4.440892098500583267E-16, 1.000000000000000000 ) ) ;
#45 = DIRECTION ( 'NONE',  ( 1.490810962382192730E-16, -4.440892098500583267E-16, -1.000000000000000000 ) ) ;
#46 = CIRCLE ( 'NONE', #2, 38.95000000000007390 ) ;
#47 = DIRECTION ( 'NONE',  ( 0.000000000000000000, -3.562975046935668797E-16, -1.000000000000000000 ) ) ;
#48 = PERSON_AND_ORGANIZATION_ROLE ( 'design_owner' ) ;
#49 = VERTEX_POINT ( 'NONE', #13 ) ;
#50 = DIRECTION ( 'NONE',  ( -1.000000000000000000, 2.302157758133558184E-16, 1.490810962382196428E-16 ) ) ;
#51 = CIRCLE ( 'NONE', #217, 158.9500000000000171 ) ;
#52 = ADVANCED_BREP_SHAPE_REPRESENTATION ( 'OEM-80X45-LR-40-316L_REV_', ( #77, #42 ), #148 ) ;
#53 = CARTESIAN_POINT ( 'NONE',  ( -80.96372644585926537, 80.96372644586017486, 4.802527839793841888E-14 ) ) ;
#54 = DATE_TIME_ROLE ( 'classification_date' ) ;
#55 = DIRECTION ( 'NONE',  ( -1.490810962382192730E-16, 4.440892098500583267E-16, 1.000000000000000000 ) ) ;
#56 = CC_DESIGN_PERSON_AND_ORGANIZATION_ASSIGNMENT ( #31, #20, ( #195 ) ) ;
#57 = ORIENTED_EDGE ( 'NONE', *, *, #41, .T. ) ;
#58 = AXIS2_PLACEMENT_3D ( 'NONE', #53, #190, #250 ) ;
#59 = CC_DESIGN_APPROVAL ( #189, ( #195 ) ) ;
#60 = APPROVAL_DATE_TIME ( #251, #241 ) ;
#61 = APPROVAL_ROLE ( '' ) ;
#62 = PRODUCT_RELATED_PRODUCT_CATEGORY ( 'detail', '', ( #24 ) ) ;
#63 = CARTESIAN_POINT ( 'NONE',  ( -80.96372644585926537, 80.96372644586017486, 4.802527839793841888E-14 ) ) ;
#64 = ADVANCED_FACE ( 'NONE', ( #211 ), #16, .T. ) ;
#65 = APPROVAL_PERSON_ORGANIZATION ( #114, #168, #61 ) ;
#66 = DIRECTION ( 'NONE',  ( -1.490810962382192730E-16, 4.440892098500583267E-16, 1.000000000000000000 ) ) ;
#67 = APPLICATION_PROTOCOL_DEFINITION ( 'international standard', 'config_control_design', 1994, #130 ) ;
#68 = ORIENTED_EDGE ( 'NONE', *, *, #123, .F. ) ;
#69 = PERSON_AND_ORGANIZATION ( #91, #138 ) ;
#70 = ADVANCED_FACE ( 'NONE', ( #113 ), #84, .F. ) ;
#71 = DIRECTION ( 'NONE',  ( -1.490810962382192730E-16, 4.440892098500583267E-16, 1.000000000000000000 ) ) ;
#72 = AXIS2_PLACEMENT_3D ( 'NONE', #89, #66, #127 ) ;
#73 = DIRECTION ( 'NONE',  ( 1.490810962382192484E-16, -3.122111992759151554E-16, -1.000000000000000000 ) ) ;
#74 = PERSON_AND_ORGANIZATION ( #91, #138 ) ;
#75 = ORIENTED_EDGE ( 'NONE', *, *, #23, .F. ) ;
#76 = APPROVAL_STATUS ( 'not_yet_approved' ) ;
#77 = MANIFOLD_SOLID_BREP ( 'Sweep1', #28 ) ;
#78 = ORIENTED_EDGE ( 'NONE', *, *, #163, .F. ) ;
#79 = AXIS2_PLACEMENT_3D ( 'NONE', #180, #50, #4 ) ;
#80 = ADVANCED_FACE ( 'NONE', ( #86, #176 ), #104, .T. ) ;
#81 = CARTESIAN_POINT ( 'NONE',  ( 0.000000000000000000, 0.000000000000000000, 0.000000000000000000 ) ) ;
#82 = DIRECTION ( 'NONE',  ( 1.000000000000000000, -2.302157758133557198E-16, 1.490810962382193716E-16 ) ) ;
#83 = AXIS2_PLACEMENT_3D ( 'NONE', #7, #105, #47 ) ;
#84 = TOROIDAL_SURFACE ( 'NONE', #126, 114.5000000000000000, 38.95000000000000284 ) ;
#85 = CIRCLE ( 'NONE', #228, 75.55000000000001137 ) ;
#86 = FACE_BOUND ( 'NONE', #35, .T. ) ;
#87 = EDGE_CURVE ( 'NONE', #110, #153, #178, .T. ) ;
#88 = CARTESIAN_POINT ( 'NONE',  ( -80.96372644585926537, 80.96372644586017486, 4.802527839793841888E-14 ) ) ;
#89 = CARTESIAN_POINT ( 'NONE',  ( 8.115311501441303895E-31, -2.417424048588553686E-30, -5.443555022209996741E-15 ) ) ;
#90 = CC_DESIGN_APPROVAL ( #241, ( #142 ) ) ;
#91 = PERSON ( 'UNSPECIFIED', 'UNSPECIFIED', 'UNSPECIFIED', ('UNSPECIFIED'), ('UNSPECIFIED'), ('UNSPECIFIED') ) ;
#92 = ORIENTED_EDGE ( 'NONE', *, *, #3, .T. ) ;
#93 = CARTESIAN_POINT ( 'NONE',  ( -1.212553936974193252E-13, 70.04999999999999716, -2.830407297054885500E-14 ) ) ;
#94 = ORIENTED_EDGE ( 'NONE', *, *, #87, .F. ) ;
#95 = ORIENTED_EDGE ( 'NONE', *, *, #236, .F. ) ;
#96 = DIRECTION ( 'NONE',  ( 1.000000000000000000, -2.302157758133557198E-16, 1.490810962382193716E-16 ) ) ;
#97 = COORDINATED_UNIVERSAL_TIME_OFFSET ( 10, 0, .AHEAD. ) ;
#98 = DIRECTION ( 'NONE',  ( 0.000000000000000000, -3.122111992759151554E-16, -1.000000000000000000 ) ) ;
#99 = ADVANCED_FACE ( 'NONE', ( #199 ), #21, .T. ) ;
#100 = DATE_AND_TIME ( #140, #164 ) ;
#101 = CARTESIAN_POINT ( 'NONE',  ( -1.020553979945854525E-13, 153.4500000000000171, -6.814548925149151018E-14 ) ) ;
#102 = AXIS2_PLACEMENT_3D ( 'NONE', #246, #134, #73 ) ;
#103 = CALENDAR_DATE ( 2026, 4, 3 ) ;
#104 = PLANE ( 'NONE',  #1 ) ;
#105 = DIRECTION ( 'NONE',  ( -0.7071067811865514585, -0.7071067811865437980, -2.086022376399811183E-16 ) ) ;
#106 = EDGE_LOOP ( 'NONE', ( #225, #215 ) ) ;
#107 = EDGE_CURVE ( 'NONE', #6, #154, #11, .T. ) ;
#108 = APPROVAL_ROLE ( '' ) ;
#109 = AXIS2_PLACEMENT_3D ( 'NONE', #88, #223, #45 ) ;
#110 = VERTEX_POINT ( 'NONE', #193 ) ;
#111 = CARTESIAN_POINT ( 'NONE',  ( -80.96372644585926537, 80.96372644586017486, 4.802527839793841888E-14 ) ) ;
#112 = ORIENTED_EDGE ( 'NONE', *, *, #41, .F. ) ;
#113 = FACE_OUTER_BOUND ( 'NONE', #170, .T. ) ;
#114 = PERSON_AND_ORGANIZATION ( #91, #138 ) ;
#115 = PRODUCT_DEFINITION_SHAPE ( 'NONE', 'NONE',  #195 ) ;
#116 = VERTEX_POINT ( 'NONE', #101 ) ;
#117 = APPROVAL_DATE_TIME ( #137, #168 ) ;
#118 = DIRECTION ( 'NONE',  ( 1.000000000000000000, -2.302157758133558184E-16, -1.490810962382196428E-16 ) ) ;
#119 = PERSON_AND_ORGANIZATION ( #91, #138 ) ;
#120 = LOCAL_TIME ( 13, 54, 15.00000000000000000, #97 ) ;
#121 = DIRECTION ( 'NONE',  ( -1.490810962382192730E-16, 4.440892098500583267E-16, 1.000000000000000000 ) ) ;
#122 = LOCAL_TIME ( 13, 54, 15.00000000000000000, #229 ) ;
#123 = EDGE_CURVE ( 'NONE', #116, #182, #46, .T. ) ;
#124 = DIRECTION ( 'NONE',  ( 1.490810962382192484E-16, -3.122111992759151554E-16, -1.000000000000000000 ) ) ;
#125 =( NAMED_UNIT ( * ) SI_UNIT ( $, .STERADIAN. ) SOLID_ANGLE_UNIT ( ) );
#126 = AXIS2_PLACEMENT_3D ( 'NONE', #81, #121, #197 ) ;
#127 = DIRECTION ( 'NONE',  ( 0.000000000000000000, -1.000000000000000000, 4.440892098500582774E-16 ) ) ;
#128 = DIRECTION ( 'NONE',  ( 0.000000000000000000, -3.562975046935668797E-16, -1.000000000000000000 ) ) ;
#129 = CC_DESIGN_DATE_AND_TIME_ASSIGNMENT ( #12, #39, ( #195 ) ) ;
#130 = APPLICATION_CONTEXT ( 'configuration controlled 3d designs of mechanical parts and assemblies' ) ;
#131 =( LENGTH_UNIT ( ) NAMED_UNIT ( * ) SI_UNIT ( .MILLI., .METRE. ) );
#132 = ORIENTED_EDGE ( 'NONE', *, *, #163, .T. ) ;
#133 = CC_DESIGN_APPROVAL ( #168, ( #34 ) ) ;
#134 = DIRECTION ( 'NONE',  ( 1.000000000000000000, -2.302157758133558184E-16, -1.490810962382196428E-16 ) ) ;
#135 = DIRECTION ( 'NONE',  ( 0.000000000000000000, -1.000000000000000000, 4.440892098500583267E-16 ) ) ;
#136 = CARTESIAN_POINT ( 'NONE',  ( 0.000000000000000000, 0.000000000000000000, 0.000000000000000000 ) ) ;
#137 = DATE_AND_TIME ( #103, #205 ) ;
#138 = ORGANIZATION ( 'UNSPECIFIED', 'UNSPECIFIED', '' ) ;
#139 = ORIENTED_EDGE ( 'NONE', *, *, #123, .T. ) ;
#140 = CALENDAR_DATE ( 2026, 4, 3 ) ;
#141 = AXIS2_PLACEMENT_3D ( 'NONE', #111, #222, #128 ) ;
#142 = PRODUCT_DEFINITION_FORMATION_WITH_SPECIFIED_SOURCE ( 'ANY', '', #24, .NOT_KNOWN. ) ;
#143 = CARTESIAN_POINT ( 'NONE',  ( 7.111167221172974392E-31, -2.118305212430239827E-30, -4.769999282678949482E-15 ) ) ;
#144 = PERSON_AND_ORGANIZATION ( #91, #138 ) ;
#145 = EDGE_LOOP ( 'NONE', ( #112, #78, #151, #171 ) ) ;
#146 = CALENDAR_DATE ( 2026, 4, 3 ) ;
#147 = EDGE_LOOP ( 'NONE', ( #75, #8, #92, #30 ) ) ;
#148 =( GEOMETRIC_REPRESENTATION_CONTEXT ( 3 ) GLOBAL_UNCERTAINTY_ASSIGNED_CONTEXT ( ( #177 ) ) GLOBAL_UNIT_ASSIGNED_CONTEXT ( ( #131, #203, #125 ) ) REPRESENTATION_CONTEXT ( 'NONE', 'WORKASPACE' ) );
#149 = PERSON_AND_ORGANIZATION_ROLE ( 'creator' ) ;
#150 = CIRCLE ( 'NONE', #83, 38.95000000000007390 ) ;
#151 = ORIENTED_EDGE ( 'NONE', *, *, #213, .T. ) ;
#152 = APPROVAL_ROLE ( '' ) ;
#153 = VERTEX_POINT ( 'NONE', #218 ) ;
#154 = VERTEX_POINT ( 'NONE', #183 ) ;
#155 = CC_DESIGN_PERSON_AND_ORGANIZATION_ASSIGNMENT ( #119, #149, ( #142 ) ) ;
#156 = APPLICATION_CONTEXT ( 'configuration controlled 3d designs of mechanical parts and assemblies' ) ;
#157 = DIRECTION ( 'NONE',  ( 1.490810962382191498E-16, -3.562975046935668797E-16, -1.000000000000000000 ) ) ;
#158 = CARTESIAN_POINT ( 'NONE',  ( 0.000000000000000000, 0.000000000000000000, 0.000000000000000000 ) ) ;
#159 = ADVANCED_FACE ( 'NONE', ( #25, #179 ), #220, .F. ) ;
#160 = CARTESIAN_POINT ( 'NONE',  ( -1.110223024625156540E-13, 114.5000000000000142, 5.084821452783177197E-14 ) ) ;
#161 = AXIS2_PLACEMENT_3D ( 'NONE', #43, #118, #124 ) ;
#162 = CC_DESIGN_PERSON_AND_ORGANIZATION_ASSIGNMENT ( #210, #192, ( #34 ) ) ;
#163 = EDGE_CURVE ( 'NONE', #182, #116, #5, .T. ) ;
#164 = LOCAL_TIME ( 13, 54, 15.00000000000000000, #196 ) ;
#165 = AXIS2_PLACEMENT_3D ( 'NONE', #187, #232, #96 ) ;
#166 = MECHANICAL_CONTEXT ( 'NONE', #130, 'mechanical' ) ;
#167 = CARTESIAN_POINT ( 'NONE',  ( 0.000000000000000000, 0.000000000000000000, 0.000000000000000000 ) ) ;
#168 = APPROVAL ( #76, 'UNSPECIFIED' ) ;
#169 = LOCAL_TIME ( 13, 54, 15.00000000000000000, #219 ) ;
#170 = EDGE_LOOP ( 'NONE', ( #68, #57, #186, #249 ) ) ;
#171 = ORIENTED_EDGE ( 'NONE', *, *, #245, .T. ) ;
#172 = FACE_OUTER_BOUND ( 'NONE', #145, .T. ) ;
#173 = AXIS2_PLACEMENT_3D ( 'NONE', #158, #175, #38 ) ;
#174 = ORIENTED_EDGE ( 'NONE', *, *, #200, .T. ) ;
#175 = DIRECTION ( 'NONE',  ( -1.490810962382192730E-16, 4.440892098500583267E-16, 1.000000000000000000 ) ) ;
#176 = FACE_OUTER_BOUND ( 'NONE', #106, .T. ) ;
#177 = UNCERTAINTY_MEASURE_WITH_UNIT (LENGTH_MEASURE( 1.000000000000000082E-05 ), #131, 'distance_accuracy_value', 'NONE');
#178 = CIRCLE ( 'NONE', #247, 44.45000000000008811 ) ;
#179 = FACE_OUTER_BOUND ( 'NONE', #231, .T. ) ;
#180 = CARTESIAN_POINT ( 'NONE',  ( -1.110223024625156540E-13, 114.5000000000000142, 5.084821452783177197E-14 ) ) ;
#181 = CARTESIAN_POINT ( 'NONE',  ( 0.000000000000000000, 0.000000000000000000, 0.000000000000000000 ) ) ;
#182 = VERTEX_POINT ( 'NONE', #22 ) ;
#183 = CARTESIAN_POINT ( 'NONE',  ( -1.007892112276119829E-13, 158.9500000000000455, -7.058797990566682932E-14 ) ) ;
#184 = ORIENTED_EDGE ( 'NONE', *, *, #245, .F. ) ;
#185 = DIRECTION ( 'NONE',  ( 0.000000000000000000, -1.000000000000000000, 4.440892098500582774E-16 ) ) ;
#186 = ORIENTED_EDGE ( 'NONE', *, *, #236, .T. ) ;
#187 = CARTESIAN_POINT ( 'NONE',  ( 0.000000000000000000, 0.000000000000000000, 0.000000000000000000 ) ) ;
#188 = CALENDAR_DATE ( 2026, 4, 3 ) ;
#189 = APPROVAL ( #27, 'UNSPECIFIED' ) ;
#190 = DIRECTION ( 'NONE',  ( 0.7071067811865514585, 0.7071067811865437980, 2.086022376399811183E-16 ) ) ;
#191 = DIRECTION ( 'NONE',  ( 0.7071067811865514585, 0.7071067811865437980, 2.086022376399811183E-16 ) ) ;
#192 = PERSON_AND_ORGANIZATION_ROLE ( 'classification_officer' ) ;
#193 = CARTESIAN_POINT ( 'NONE',  ( -49.53283002211739472, 49.53283002211794894, -3.482495896784824498E-14 ) ) ;
#194 = CIRCLE ( 'NONE', #141, 38.95000000000007390 ) ;
#195 = PRODUCT_DEFINITION ( 'UNKNOWN', '', #142, #239 ) ;
#196 = COORDINATED_UNIVERSAL_TIME_OFFSET ( 10, 0, .AHEAD. ) ;
#197 = DIRECTION ( 'NONE',  ( 1.000000000000000000, -2.302157758133556705E-16, 1.490810962382193470E-16 ) ) ;
#198 = CIRCLE ( 'NONE', #237, 153.4500000000000171 ) ;
#199 = FACE_OUTER_BOUND ( 'NONE', #147, .T. ) ;
#200 = EDGE_CURVE ( 'NONE', #6, #110, #17, .T. ) ;
#201 = DIRECTION ( 'NONE',  ( -1.490810962382192730E-16, 4.440892098500583267E-16, 1.000000000000000000 ) ) ;
#202 = DIRECTION ( 'NONE',  ( 0.000000000000000000, -1.000000000000000000, 4.440892098500583267E-16 ) ) ;
#203 =( NAMED_UNIT ( * ) PLANE_ANGLE_UNIT ( ) SI_UNIT ( $, .RADIAN. ) );
#204 = APPLICATION_PROTOCOL_DEFINITION ( 'international standard', 'config_control_design', 1994, #156 ) ;
#205 = LOCAL_TIME ( 13, 54, 15.00000000000000000, #37 ) ;
#206 = ORIENTED_EDGE ( 'NONE', *, *, #107, .F. ) ;
#207 = CIRCLE ( 'NONE', #58, 44.45000000000008811 ) ;
#208 = APPROVAL_DATE_TIME ( #226, #189 ) ;
#209 = ORIENTED_EDGE ( 'NONE', *, *, #87, .T. ) ;
#210 = PERSON_AND_ORGANIZATION ( #91, #138 ) ;
#211 = FACE_OUTER_BOUND ( 'NONE', #244, .T. ) ;
#212 = PERSON_AND_ORGANIZATION ( #91, #138 ) ;
#213 = EDGE_CURVE ( 'NONE', #182, #49, #85, .T. ) ;
#214 = CARTESIAN_POINT ( 'NONE',  ( 0.000000000000000000, 0.000000000000000000, 0.000000000000000000 ) ) ;
#215 = ORIENTED_EDGE ( 'NONE', *, *, #23, .T. ) ;
#216 = SECURITY_CLASSIFICATION_LEVEL ( 'unclassified' ) ;
#217 = AXIS2_PLACEMENT_3D ( 'NONE', #181, #44, #202 ) ;
#218 = CARTESIAN_POINT ( 'NONE',  ( -112.3946228696011786, 112.3946228696024434, -6.666915285023843254E-14 ) ) ;
#219 = COORDINATED_UNIVERSAL_TIME_OFFSET ( 10, 0, .AHEAD. ) ;
#220 = PLANE ( 'NONE',  #109 ) ;
#221 = TOROIDAL_SURFACE ( 'NONE', #235, 114.5000000000000000, 38.95000000000000284 ) ;
#222 = DIRECTION ( 'NONE',  ( -0.7071067811865514585, -0.7071067811865437980, -2.086022376399811183E-16 ) ) ;
#223 = DIRECTION ( 'NONE',  ( 0.7071067811865513475, 0.7071067811865436870, -2.086022376399805267E-16 ) ) ;
#224 = CC_DESIGN_PERSON_AND_ORGANIZATION_ASSIGNMENT ( #144, #48, ( #24 ) ) ;
#225 = ORIENTED_EDGE ( 'NONE', *, *, #107, .T. ) ;
#226 = DATE_AND_TIME ( #146, #169 ) ;
#227 = DIRECTION ( 'NONE',  ( 1.000000000000000000, -2.302157758133556705E-16, 1.490810962382193470E-16 ) ) ;
#228 = AXIS2_PLACEMENT_3D ( 'NONE', #143, #201, #185 ) ;
#229 = COORDINATED_UNIVERSAL_TIME_OFFSET ( 10, 0, .AHEAD. ) ;
#230 = ORIENTED_EDGE ( 'NONE', *, *, #3, .F. ) ;
#231 = EDGE_LOOP ( 'NONE', ( #94, #230 ) ) ;
#232 = DIRECTION ( 'NONE',  ( -1.490810962382192730E-16, 4.440892098500583267E-16, 1.000000000000000000 ) ) ;
#233 = CARTESIAN_POINT ( 'NONE',  ( -1.110223024625156540E-13, 114.5000000000000142, 5.084821452783177197E-14 ) ) ;
#234 = CC_DESIGN_SECURITY_CLASSIFICATION ( #34, ( #142 ) ) ;
#235 = AXIS2_PLACEMENT_3D ( 'NONE', #136, #71, #227 ) ;
#236 = EDGE_CURVE ( 'NONE', #242, #49, #150, .T. ) ;
#237 = AXIS2_PLACEMENT_3D ( 'NONE', #214, #55, #135 ) ;
#238 = EDGE_CURVE ( 'NONE', #154, #153, #51, .T. ) ;
#239 = DESIGN_CONTEXT ( 'detailed design', #156, 'design' ) ;
#240 = DIRECTION ( 'NONE',  ( 1.000000000000000000, 0.000000000000000000, 0.000000000000000000 ) ) ;
#241 = APPROVAL ( #248, 'UNSPECIFIED' ) ;
#242 = VERTEX_POINT ( 'NONE', #9 ) ;
#243 = DIRECTION ( 'NONE',  ( 0.000000000000000000, 0.000000000000000000, 1.000000000000000000 ) ) ;
#244 = EDGE_LOOP ( 'NONE', ( #10, #206, #174, #209 ) ) ;
#245 = EDGE_CURVE ( 'NONE', #49, #242, #194, .T. ) ;
#246 = CARTESIAN_POINT ( 'NONE',  ( -1.110223024625156540E-13, 114.5000000000000142, 5.084821452783177197E-14 ) ) ;
#247 = AXIS2_PLACEMENT_3D ( 'NONE', #63, #191, #98 ) ;
#248 = APPROVAL_STATUS ( 'not_yet_approved' ) ;
#249 = ORIENTED_EDGE ( 'NONE', *, *, #213, .F. ) ;
#250 = DIRECTION ( 'NONE',  ( 0.000000000000000000, -3.122111992759151554E-16, -1.000000000000000000 ) ) ;
#251 = DATE_AND_TIME ( #188, #120 ) ;
#252 = DIRECTION ( 'NONE',  ( -1.000000000000000000, 2.302157758133558184E-16, 1.490810962382196428E-16 ) ) ;
#253 = CALENDAR_DATE ( 2026, 4, 3 ) ;
ENDSEC;
END-ISO-10303-21;
