ISO-10303-21;
HEADER;
FILE_DESCRIPTION (( 'STEP AP203' ),
    '1' );
FILE_NAME ('OEM-M12-AT-265-304_REV_.step',
    '2026-01-09T02:44:33',
    ( '' ),
    ( '' ),
    'SwSTEP 2.0',
    'SolidWorks 2025',
    '' );
FILE_SCHEMA (( 'CONFIG_CONTROL_DESIGN' ));
ENDSEC;

DATA;
#1 = COORDINATED_UNIVERSAL_TIME_OFFSET ( 10, 0, .AHEAD. ) ;
#2 = DIRECTION ( 'NONE',  ( 1.000000000000000000, 0.000000000000000000, 0.000000000000000000 ) ) ;
#3 = APPROVAL ( #260, 'UNSPECIFIED' ) ;
#4 = ORIENTED_EDGE ( 'NONE', *, *, #189, .F. ) ;
#5 = PERSON_AND_ORGANIZATION ( #262, #272 ) ;
#6 = VERTEX_POINT ( 'NONE', #75 ) ;
#7 = LINE ( 'NONE', #137, #8 ) ;
#8 = VECTOR ( 'NONE', #218, 1000.000000000000114 ) ;
#9 = SHAPE_DEFINITION_REPRESENTATION ( #43, #54 ) ;
#10 = CYLINDRICAL_SURFACE ( 'NONE', #253, 6.000000000000000888 ) ;
#11 = ORIENTED_EDGE ( 'NONE', *, *, #138, .T. ) ;
#12 = CARTESIAN_POINT ( 'NONE',  ( 0.000000000000000000, 0.000000000000000000, 1.000000000000000888 ) ) ;
#13 = AXIS2_PLACEMENT_3D ( 'NONE', #110, #208, #2 ) ;
#14 = DIRECTION ( 'NONE',  ( -1.000000000000000000, 0.000000000000000000, 0.000000000000000000 ) ) ;
#15 = DIRECTION ( 'NONE',  ( -0.7071067811865460184, 0.000000000000000000, -0.7071067811865489050 ) ) ;
#16 = CARTESIAN_POINT ( 'NONE',  ( 0.000000000000000000, 0.000000000000000000, 1.000000000000000888 ) ) ;
#17 = CARTESIAN_POINT ( 'NONE',  ( 5.000000000000004441, 6.735557395310445967E-16, 265.0000000000000000 ) ) ;
#18 =( GEOMETRIC_REPRESENTATION_CONTEXT ( 3 ) GLOBAL_UNCERTAINTY_ASSIGNED_CONTEXT ( ( #74 ) ) GLOBAL_UNIT_ASSIGNED_CONTEXT ( ( #233, #250, #21 ) ) REPRESENTATION_CONTEXT ( 'NONE', 'WORKASPACE' ) );
#19 = VECTOR ( 'NONE', #164, 1000.000000000000114 ) ;
#20 = APPROVAL ( #111, 'UNSPECIFIED' ) ;
#21 =( NAMED_UNIT ( * ) SI_UNIT ( $, .STERADIAN. ) SOLID_ANGLE_UNIT ( ) );
#22 = DATE_AND_TIME ( #188, #186 ) ;
#23 = APPROVAL_ROLE ( '' ) ;
#24 = ORIENTED_EDGE ( 'NONE', *, *, #138, .F. ) ;
#25 = MANIFOLD_SOLID_BREP ( 'Chamfer1', #244 ) ;
#26 = ORIENTED_EDGE ( 'NONE', *, *, #124, .T. ) ;
#27 = VERTEX_POINT ( 'NONE', #115 ) ;
#28 = AXIS2_PLACEMENT_3D ( 'NONE', #16, #266, #121 ) ;
#29 = PERSON_AND_ORGANIZATION ( #262, #272 ) ;
#30 = CC_DESIGN_APPROVAL ( #20, ( #192 ) ) ;
#31 = ORIENTED_EDGE ( 'NONE', *, *, #69, .T. ) ;
#32 = PLANE ( 'NONE',  #248 ) ;
#33 = CARTESIAN_POINT ( 'NONE',  ( 0.000000000000000000, 0.000000000000000000, 0.000000000000000000 ) ) ;
#34 = CIRCLE ( 'NONE', #174, 6.000000000000000888 ) ;
#35 = FACE_OUTER_BOUND ( 'NONE', #179, .T. ) ;
#36 = CC_DESIGN_PERSON_AND_ORGANIZATION_ASSIGNMENT ( #67, #230, ( #225 ) ) ;
#37 = LINE ( 'NONE', #268, #66 ) ;
#38 = DIRECTION ( 'NONE',  ( 0.000000000000000000, 0.000000000000000000, -1.000000000000000000 ) ) ;
#39 = EDGE_CURVE ( 'NONE', #50, #133, #7, .T. ) ;
#40 = PERSON_AND_ORGANIZATION ( #262, #272 ) ;
#41 = AXIS2_PLACEMENT_3D ( 'NONE', #63, #200, #14 ) ;
#42 = APPLICATION_PROTOCOL_DEFINITION ( 'international standard', 'config_control_design', 1994, #135 ) ;
#43 = PRODUCT_DEFINITION_SHAPE ( 'NONE', 'NONE',  #192 ) ;
#44 = CARTESIAN_POINT ( 'NONE',  ( 0.000000000000000000, 0.000000000000000000, 0.000000000000000000 ) ) ;
#45 = PERSON_AND_ORGANIZATION ( #262, #272 ) ;
#46 = ADVANCED_FACE ( 'NONE', ( #116 ), #10, .T. ) ;
#47 = AXIS2_PLACEMENT_3D ( 'NONE', #104, #222, #187 ) ;
#48 = AXIS2_PLACEMENT_3D ( 'NONE', #44, #275, #153 ) ;
#49 = APPLICATION_PROTOCOL_DEFINITION ( 'international standard', 'config_control_design', 1994, #256 ) ;
#50 = VERTEX_POINT ( 'NONE', #184 ) ;
#51 = ORIENTED_EDGE ( 'NONE', *, *, #199, .F. ) ;
#52 = APPROVAL_DATE_TIME ( #213, #3 ) ;
#53 = ORIENTED_EDGE ( 'NONE', *, *, #255, .F. ) ;
#54 = ADVANCED_BREP_SHAPE_REPRESENTATION ( 'OEM-M12-AT-265-304_REV_', ( #25, #13 ), #18 ) ;
#55 = ORIENTED_EDGE ( 'NONE', *, *, #147, .T. ) ;
#56 = CONICAL_SURFACE ( 'NONE', #205, 5.000000000000004441, 0.7853981633974461696 ) ;
#57 = CC_DESIGN_APPROVAL ( #3, ( #72 ) ) ;
#58 = CARTESIAN_POINT ( 'NONE',  ( 0.000000000000000000, 0.000000000000000000, 265.0000000000000000 ) ) ;
#59 = DIRECTION ( 'NONE',  ( 1.000000000000000000, 0.000000000000000000, 0.000000000000000000 ) ) ;
#60 = FACE_OUTER_BOUND ( 'NONE', #78, .T. ) ;
#61 = LOCAL_TIME ( 13, 44, 33.00000000000000000, #210 ) ;
#62 = DIRECTION ( 'NONE',  ( 0.000000000000000000, 0.000000000000000000, -1.000000000000000000 ) ) ;
#63 = CARTESIAN_POINT ( 'NONE',  ( 0.000000000000000000, 0.000000000000000000, 265.0000000000000000 ) ) ;
#64 = CALENDAR_DATE ( 2026, 9, 1 ) ;
#65 = CARTESIAN_POINT ( 'NONE',  ( 6.000000000000000888, 7.347880794884120722E-16, 265.0000000000000000 ) ) ;
#66 = VECTOR ( 'NONE', #15, 1000.000000000000114 ) ;
#67 = PERSON_AND_ORGANIZATION ( #262, #272 ) ;
#68 = EDGE_CURVE ( 'NONE', #136, #6, #37, .T. ) ;
#69 = EDGE_CURVE ( 'NONE', #27, #6, #166, .T. ) ;
#70 = DIRECTION ( 'NONE',  ( -0.000000000000000000, -0.000000000000000000, -1.000000000000000000 ) ) ;
#71 = CONICAL_SURFACE ( 'NONE', #220, 6.000000000000000888, 0.7853981633974318477 ) ;
#72 = SECURITY_CLASSIFICATION ( '', '', #87 ) ;
#73 = ORIENTED_EDGE ( 'NONE', *, *, #39, .T. ) ;
#74 = UNCERTAINTY_MEASURE_WITH_UNIT (LENGTH_MEASURE( 1.000000000000000082E-05 ), #233, 'distance_accuracy_value', 'NONE');
#75 = CARTESIAN_POINT ( 'NONE',  ( -6.000000000000000888, 0.000000000000000000, 264.0000000000000000 ) ) ;
#76 = CALENDAR_DATE ( 2026, 9, 1 ) ;
#77 = CARTESIAN_POINT ( 'NONE',  ( 0.000000000000000000, 0.000000000000000000, 265.0000000000000000 ) ) ;
#78 = EDGE_LOOP ( 'NONE', ( #261, #99, #160, #53 ) ) ;
#79 = ADVANCED_FACE ( 'NONE', ( #60 ), #83, .T. ) ;
#80 = CARTESIAN_POINT ( 'NONE',  ( 5.000000000000004441, 6.123233995736772199E-16, 265.0000000000000000 ) ) ;
#81 = ADVANCED_FACE ( 'NONE', ( #240 ), #32, .T. ) ;
#82 = LINE ( 'NONE', #148, #19 ) ;
#83 = CYLINDRICAL_SURFACE ( 'NONE', #47, 6.000000000000000888 ) ;
#84 = DIRECTION ( 'NONE',  ( -1.000000000000000000, 0.000000000000000000, 0.000000000000000000 ) ) ;
#85 = DIRECTION ( 'NONE',  ( 1.000000000000000000, 0.000000000000000000, -0.000000000000000000 ) ) ;
#86 = CC_DESIGN_PERSON_AND_ORGANIZATION_ASSIGNMENT ( #5, #194, ( #72 ) ) ;
#87 = SECURITY_CLASSIFICATION_LEVEL ( 'unclassified' ) ;
#88 = CALENDAR_DATE ( 2026, 9, 1 ) ;
#89 = VECTOR ( 'NONE', #202, 1000.000000000000114 ) ;
#90 = DATE_AND_TIME ( #88, #249 ) ;
#91 = APPROVAL_STATUS ( 'not_yet_approved' ) ;
#92 = AXIS2_PLACEMENT_3D ( 'NONE', #33, #146, #203 ) ;
#93 = COORDINATED_UNIVERSAL_TIME_OFFSET ( 10, 0, .AHEAD. ) ;
#94 = ORIENTED_EDGE ( 'NONE', *, *, #223, .F. ) ;
#95 = DESIGN_CONTEXT ( 'detailed design', #135, 'design' ) ;
#96 = EDGE_LOOP ( 'NONE', ( #11, #55 ) ) ;
#97 = APPROVAL_PERSON_ORGANIZATION ( #45, #20, #247 ) ;
#98 = ADVANCED_FACE ( 'NONE', ( #273 ), #117, .T. ) ;
#99 = ORIENTED_EDGE ( 'NONE', *, *, #269, .T. ) ;
#100 = DIRECTION ( 'NONE',  ( 1.000000000000000000, 0.000000000000000000, 0.000000000000000000 ) ) ;
#101 = CC_DESIGN_PERSON_AND_ORGANIZATION_ASSIGNMENT ( #252, #108, ( #102 ) ) ;
#102 = PRODUCT_DEFINITION_FORMATION_WITH_SPECIFIED_SOURCE ( 'ANY', '', #225, .NOT_KNOWN. ) ;
#103 = CARTESIAN_POINT ( 'NONE',  ( 0.000000000000000000, 0.000000000000000000, 265.0000000000000000 ) ) ;
#104 = CARTESIAN_POINT ( 'NONE',  ( 0.000000000000000000, 0.000000000000000000, 265.0000000000000000 ) ) ;
#105 = FACE_OUTER_BOUND ( 'NONE', #118, .T. ) ;
#106 = CIRCLE ( 'NONE', #140, 5.000000000000004441 ) ;
#107 = LINE ( 'NONE', #170, #109 ) ;
#108 = PERSON_AND_ORGANIZATION_ROLE ( 'creator' ) ;
#109 = VECTOR ( 'NONE', #70, 1000.000000000000000 ) ;
#110 = CARTESIAN_POINT ( 'NONE',  ( 0.000000000000000000, 0.000000000000000000, 0.000000000000000000 ) ) ;
#111 = APPROVAL_STATUS ( 'not_yet_approved' ) ;
#112 = EDGE_CURVE ( 'NONE', #133, #178, #155, .T. ) ;
#113 = ORIENTED_EDGE ( 'NONE', *, *, #69, .F. ) ;
#114 = DATE_AND_TIME ( #76, #173 ) ;
#115 = CARTESIAN_POINT ( 'NONE',  ( 6.000000000000000888, 7.347880794884120722E-16, 264.0000000000000000 ) ) ;
#116 = FACE_OUTER_BOUND ( 'NONE', #216, .T. ) ;
#117 = CONICAL_SURFACE ( 'NONE', #271, 6.000000000000000888, 0.7853981633974318477 ) ;
#118 = EDGE_LOOP ( 'NONE', ( #196, #26, #235, #158 ) ) ;
#119 = APPROVAL ( #91, 'UNSPECIFIED' ) ;
#120 = FACE_OUTER_BOUND ( 'NONE', #257, .T. ) ;
#121 = DIRECTION ( 'NONE',  ( 1.000000000000000000, 0.000000000000000000, 0.000000000000000000 ) ) ;
#122 = AXIS2_PLACEMENT_3D ( 'NONE', #241, #165, #59 ) ;
#123 = DIRECTION ( 'NONE',  ( 1.000000000000000000, 0.000000000000000000, 0.000000000000000000 ) ) ;
#124 = EDGE_CURVE ( 'NONE', #239, #27, #125, .T. ) ;
#125 = LINE ( 'NONE', #80, #89 ) ;
#126 = DIRECTION ( 'NONE',  ( 0.000000000000000000, 0.000000000000000000, 1.000000000000000000 ) ) ;
#127 = CIRCLE ( 'NONE', #122, 5.000000000000004441 ) ;
#128 = PERSON_AND_ORGANIZATION_ROLE ( 'design_supplier' ) ;
#129 = ADVANCED_FACE ( 'NONE', ( #120 ), #71, .T. ) ;
#130 = COORDINATED_UNIVERSAL_TIME_OFFSET ( 10, 0, .AHEAD. ) ;
#131 = PERSON_AND_ORGANIZATION_ROLE ( 'creator' ) ;
#132 = FACE_OUTER_BOUND ( 'NONE', #180, .T. ) ;
#133 = VERTEX_POINT ( 'NONE', #163 ) ;
#134 = ORIENTED_EDGE ( 'NONE', *, *, #189, .T. ) ;
#135 = APPLICATION_CONTEXT ( 'configuration controlled 3d designs of mechanical parts and assemblies' ) ;
#136 = VERTEX_POINT ( 'NONE', #242 ) ;
#137 = CARTESIAN_POINT ( 'NONE',  ( -6.000000000000000888, 7.347880794884120722E-16, 1.000000000000000888 ) ) ;
#138 = EDGE_CURVE ( 'NONE', #136, #239, #127, .T. ) ;
#139 = CIRCLE ( 'NONE', #92, 5.000000000000032863 ) ;
#140 = AXIS2_PLACEMENT_3D ( 'NONE', #103, #243, #245 ) ;
#141 = CIRCLE ( 'NONE', #182, 6.000000000000000888 ) ;
#142 = DIRECTION ( 'NONE',  ( -0.000000000000000000, -0.000000000000000000, 1.000000000000000000 ) ) ;
#143 = CARTESIAN_POINT ( 'NONE',  ( 6.000000000000000888, 7.347880794884120722E-16, 1.000000000000000888 ) ) ;
#144 = CARTESIAN_POINT ( 'NONE',  ( 0.000000000000000000, 0.000000000000000000, 265.0000000000000000 ) ) ;
#145 = CC_DESIGN_SECURITY_CLASSIFICATION ( #72, ( #102 ) ) ;
#146 = DIRECTION ( 'NONE',  ( -0.000000000000000000, -0.000000000000000000, -1.000000000000000000 ) ) ;
#147 = EDGE_CURVE ( 'NONE', #239, #136, #106, .T. ) ;
#148 = CARTESIAN_POINT ( 'NONE',  ( 6.000000000000000888, 0.000000000000000000, 1.000000000000000888 ) ) ;
#149 = APPROVAL_DATE_TIME ( #172, #119 ) ;
#150 = CC_DESIGN_PERSON_AND_ORGANIZATION_ASSIGNMENT ( #231, #131, ( #192 ) ) ;
#151 = LINE ( 'NONE', #65, #201 ) ;
#152 = APPROVAL_DATE_TIME ( #22, #20 ) ;
#153 = DIRECTION ( 'NONE',  ( 1.000000000000000000, 0.000000000000000000, -0.000000000000000000 ) ) ;
#154 = DIRECTION ( 'NONE',  ( -0.000000000000000000, -0.000000000000000000, -1.000000000000000000 ) ) ;
#155 = CIRCLE ( 'NONE', #28, 6.000000000000000888 ) ;
#156 = CONICAL_SURFACE ( 'NONE', #41, 5.000000000000004441, 0.7853981633974461696 ) ;
#157 = ORIENTED_EDGE ( 'NONE', *, *, #223, .T. ) ;
#158 = ORIENTED_EDGE ( 'NONE', *, *, #68, .F. ) ;
#159 = CIRCLE ( 'NONE', #265, 5.000000000000032863 ) ;
#160 = ORIENTED_EDGE ( 'NONE', *, *, #199, .T. ) ;
#161 = DIRECTION ( 'NONE',  ( -0.000000000000000000, -0.000000000000000000, -1.000000000000000000 ) ) ;
#162 = ORIENTED_EDGE ( 'NONE', *, *, #124, .F. ) ;
#163 = CARTESIAN_POINT ( 'NONE',  ( -6.000000000000000888, 0.000000000000000000, 1.000000000000000888 ) ) ;
#164 = DIRECTION ( 'NONE',  ( 0.7071067811865359154, 0.000000000000000000, 0.7071067811865592301 ) ) ;
#165 = DIRECTION ( 'NONE',  ( 0.000000000000000000, 0.000000000000000000, 1.000000000000000000 ) ) ;
#166 = CIRCLE ( 'NONE', #215, 6.000000000000000888 ) ;
#167 = DIRECTION ( 'NONE',  ( 0.000000000000000000, 0.000000000000000000, -1.000000000000000000 ) ) ;
#168 = ADVANCED_FACE ( 'NONE', ( #35 ), #56, .T. ) ;
#169 = PERSON_AND_ORGANIZATION ( #262, #272 ) ;
#170 = CARTESIAN_POINT ( 'NONE',  ( -6.000000000000000888, 0.000000000000000000, 265.0000000000000000 ) ) ;
#171 = PLANE ( 'NONE',  #48 ) ;
#172 = DATE_AND_TIME ( #64, #61 ) ;
#173 = LOCAL_TIME ( 13, 44, 33.00000000000000000, #93 ) ;
#174 = AXIS2_PLACEMENT_3D ( 'NONE', #228, #38, #204 ) ;
#175 = ORIENTED_EDGE ( 'NONE', *, *, #255, .T. ) ;
#176 = ORIENTED_EDGE ( 'NONE', *, *, #269, .F. ) ;
#177 = CALENDAR_DATE ( 2026, 9, 1 ) ;
#178 = VERTEX_POINT ( 'NONE', #143 ) ;
#179 = EDGE_LOOP ( 'NONE', ( #162, #24, #197, #113 ) ) ;
#180 = EDGE_LOOP ( 'NONE', ( #134, #214 ) ) ;
#181 = DIRECTION ( 'NONE',  ( -1.000000000000000000, 0.000000000000000000, 0.000000000000000000 ) ) ;
#182 = AXIS2_PLACEMENT_3D ( 'NONE', #185, #270, #267 ) ;
#183 = CARTESIAN_POINT ( 'NONE',  ( 5.000000000000032863, 0.000000000000000000, 0.000000000000000000 ) ) ;
#184 = CARTESIAN_POINT ( 'NONE',  ( -5.000000000000032863, 6.735557395310463717E-16, 0.000000000000000000 ) ) ;
#185 = CARTESIAN_POINT ( 'NONE',  ( 0.000000000000000000, 0.000000000000000000, 1.000000000000000888 ) ) ;
#186 = LOCAL_TIME ( 13, 44, 33.00000000000000000, #1 ) ;
#187 = DIRECTION ( 'NONE',  ( -1.000000000000000000, 0.000000000000000000, 0.000000000000000000 ) ) ;
#188 = CALENDAR_DATE ( 2026, 9, 1 ) ;
#189 = EDGE_CURVE ( 'NONE', #195, #50, #139, .T. ) ;
#190 = DIRECTION ( 'NONE',  ( -0.000000000000000000, -0.000000000000000000, -1.000000000000000000 ) ) ;
#191 = APPROVAL_PERSON_ORGANIZATION ( #169, #119, #246 ) ;
#192 = PRODUCT_DEFINITION ( 'UNKNOWN', '', #102, #95 ) ;
#193 = ADVANCED_FACE ( 'NONE', ( #105 ), #156, .T. ) ;
#194 = PERSON_AND_ORGANIZATION_ROLE ( 'classification_officer' ) ;
#195 = VERTEX_POINT ( 'NONE', #183 ) ;
#196 = ORIENTED_EDGE ( 'NONE', *, *, #147, .F. ) ;
#197 = ORIENTED_EDGE ( 'NONE', *, *, #68, .T. ) ;
#198 = DIRECTION ( 'NONE',  ( -0.000000000000000000, -0.000000000000000000, 1.000000000000000000 ) ) ;
#199 = EDGE_CURVE ( 'NONE', #178, #133, #141, .T. ) ;
#200 = DIRECTION ( 'NONE',  ( 0.000000000000000000, 0.000000000000000000, -1.000000000000000000 ) ) ;
#201 = VECTOR ( 'NONE', #190, 1000.000000000000000 ) ;
#202 = DIRECTION ( 'NONE',  ( 0.7071067811865460184, 8.659560562354913137E-17, -0.7071067811865489050 ) ) ;
#203 = DIRECTION ( 'NONE',  ( 1.000000000000000000, 0.000000000000000000, 0.000000000000000000 ) ) ;
#204 = DIRECTION ( 'NONE',  ( 1.000000000000000000, 0.000000000000000000, 0.000000000000000000 ) ) ;
#205 = AXIS2_PLACEMENT_3D ( 'NONE', #144, #62, #84 ) ;
#206 = CARTESIAN_POINT ( 'NONE',  ( 0.000000000000000000, 0.000000000000000000, 0.000000000000000000 ) ) ;
#207 = DIRECTION ( 'NONE',  ( 1.000000000000000000, 0.000000000000000000, 0.000000000000000000 ) ) ;
#208 = DIRECTION ( 'NONE',  ( 0.000000000000000000, 0.000000000000000000, 1.000000000000000000 ) ) ;
#209 = APPROVAL_PERSON_ORGANIZATION ( #29, #3, #23 ) ;
#210 = COORDINATED_UNIVERSAL_TIME_OFFSET ( 10, 0, .AHEAD. ) ;
#211 = MECHANICAL_CONTEXT ( 'NONE', #256, 'mechanical' ) ;
#212 = CC_DESIGN_PERSON_AND_ORGANIZATION_ASSIGNMENT ( #40, #128, ( #102 ) ) ;
#213 = DATE_AND_TIME ( #177, #232 ) ;
#214 = ORIENTED_EDGE ( 'NONE', *, *, #263, .T. ) ;
#215 = AXIS2_PLACEMENT_3D ( 'NONE', #227, #167, #100 ) ;
#216 = EDGE_LOOP ( 'NONE', ( #176, #31, #175, #236 ) ) ;
#217 = EDGE_LOOP ( 'NONE', ( #264, #4, #157, #221 ) ) ;
#218 = DIRECTION ( 'NONE',  ( -0.7071067811865359154, 8.659560562354791110E-17, 0.7071067811865592301 ) ) ;
#219 = CC_DESIGN_DATE_AND_TIME_ASSIGNMENT ( #114, #238, ( #72 ) ) ;
#220 = AXIS2_PLACEMENT_3D ( 'NONE', #226, #198, #224 ) ;
#221 = ORIENTED_EDGE ( 'NONE', *, *, #112, .F. ) ;
#222 = DIRECTION ( 'NONE',  ( -0.000000000000000000, -0.000000000000000000, -1.000000000000000000 ) ) ;
#223 = EDGE_CURVE ( 'NONE', #195, #178, #82, .T. ) ;
#224 = DIRECTION ( 'NONE',  ( 1.000000000000000000, 0.000000000000000000, 0.000000000000000000 ) ) ;
#225 = PRODUCT ( 'OEM-M12-AT-265-304_REV_', 'OEM-M12-AT-265-304_REV_', '', ( #211 ) ) ;
#226 = CARTESIAN_POINT ( 'NONE',  ( 0.000000000000000000, 0.000000000000000000, 1.000000000000000888 ) ) ;
#227 = CARTESIAN_POINT ( 'NONE',  ( 0.000000000000000000, 0.000000000000000000, 264.0000000000000000 ) ) ;
#228 = CARTESIAN_POINT ( 'NONE',  ( 0.000000000000000000, 0.000000000000000000, 264.0000000000000000 ) ) ;
#229 = PRODUCT_RELATED_PRODUCT_CATEGORY ( 'detail', '', ( #225 ) ) ;
#230 = PERSON_AND_ORGANIZATION_ROLE ( 'design_owner' ) ;
#231 = PERSON_AND_ORGANIZATION ( #262, #272 ) ;
#232 = LOCAL_TIME ( 13, 44, 33.00000000000000000, #254 ) ;
#233 =( LENGTH_UNIT ( ) NAMED_UNIT ( * ) SI_UNIT ( .MILLI., .METRE. ) );
#234 = CC_DESIGN_DATE_AND_TIME_ASSIGNMENT ( #90, #251, ( #192 ) ) ;
#235 = ORIENTED_EDGE ( 'NONE', *, *, #237, .F. ) ;
#236 = ORIENTED_EDGE ( 'NONE', *, *, #112, .T. ) ;
#237 = EDGE_CURVE ( 'NONE', #6, #27, #34, .T. ) ;
#238 = DATE_TIME_ROLE ( 'classification_date' ) ;
#239 = VERTEX_POINT ( 'NONE', #17 ) ;
#240 = FACE_OUTER_BOUND ( 'NONE', #96, .T. ) ;
#241 = CARTESIAN_POINT ( 'NONE',  ( 0.000000000000000000, 0.000000000000000000, 265.0000000000000000 ) ) ;
#242 = CARTESIAN_POINT ( 'NONE',  ( -5.000000000000004441, 0.000000000000000000, 265.0000000000000000 ) ) ;
#243 = DIRECTION ( 'NONE',  ( 0.000000000000000000, 0.000000000000000000, 1.000000000000000000 ) ) ;
#244 = CLOSED_SHELL ( 'NONE', ( #193, #129, #79, #46, #81, #274, #98, #168 ) ) ;
#245 = DIRECTION ( 'NONE',  ( 1.000000000000000000, 0.000000000000000000, 0.000000000000000000 ) ) ;
#246 = APPROVAL_ROLE ( '' ) ;
#247 = APPROVAL_ROLE ( '' ) ;
#248 = AXIS2_PLACEMENT_3D ( 'NONE', #58, #126, #85 ) ;
#249 = LOCAL_TIME ( 13, 44, 33.00000000000000000, #130 ) ;
#250 =( NAMED_UNIT ( * ) PLANE_ANGLE_UNIT ( ) SI_UNIT ( $, .RADIAN. ) );
#251 = DATE_TIME_ROLE ( 'creation_date' ) ;
#252 = PERSON_AND_ORGANIZATION ( #262, #272 ) ;
#253 = AXIS2_PLACEMENT_3D ( 'NONE', #77, #161, #181 ) ;
#254 = COORDINATED_UNIVERSAL_TIME_OFFSET ( 10, 0, .AHEAD. ) ;
#255 = EDGE_CURVE ( 'NONE', #6, #133, #107, .T. ) ;
#256 = APPLICATION_CONTEXT ( 'configuration controlled 3d designs of mechanical parts and assemblies' ) ;
#257 = EDGE_LOOP ( 'NONE', ( #259, #73, #51, #94 ) ) ;
#258 = CC_DESIGN_APPROVAL ( #119, ( #102 ) ) ;
#259 = ORIENTED_EDGE ( 'NONE', *, *, #263, .F. ) ;
#260 = APPROVAL_STATUS ( 'not_yet_approved' ) ;
#261 = ORIENTED_EDGE ( 'NONE', *, *, #237, .T. ) ;
#262 = PERSON ( 'UNSPECIFIED', 'UNSPECIFIED', 'UNSPECIFIED', ('UNSPECIFIED'), ('UNSPECIFIED'), ('UNSPECIFIED') ) ;
#263 = EDGE_CURVE ( 'NONE', #50, #195, #159, .T. ) ;
#264 = ORIENTED_EDGE ( 'NONE', *, *, #39, .F. ) ;
#265 = AXIS2_PLACEMENT_3D ( 'NONE', #206, #154, #207 ) ;
#266 = DIRECTION ( 'NONE',  ( -0.000000000000000000, -0.000000000000000000, 1.000000000000000000 ) ) ;
#267 = DIRECTION ( 'NONE',  ( 1.000000000000000000, 0.000000000000000000, 0.000000000000000000 ) ) ;
#268 = CARTESIAN_POINT ( 'NONE',  ( -5.000000000000004441, 0.000000000000000000, 265.0000000000000000 ) ) ;
#269 = EDGE_CURVE ( 'NONE', #27, #178, #151, .T. ) ;
#270 = DIRECTION ( 'NONE',  ( -0.000000000000000000, -0.000000000000000000, 1.000000000000000000 ) ) ;
#271 = AXIS2_PLACEMENT_3D ( 'NONE', #12, #142, #123 ) ;
#272 = ORGANIZATION ( 'UNSPECIFIED', 'UNSPECIFIED', '' ) ;
#273 = FACE_OUTER_BOUND ( 'NONE', #217, .T. ) ;
#274 = ADVANCED_FACE ( 'NONE', ( #132 ), #171, .F. ) ;
#275 = DIRECTION ( 'NONE',  ( 0.000000000000000000, 0.000000000000000000, 1.000000000000000000 ) ) ;
ENDSEC;
END-ISO-10303-21;
