ISO-10303-21;
HEADER;
FILE_DESCRIPTION (( 'STEP AP203' ),
    '1' );
FILE_NAME ('OEM-M16-AT-160-304_REV_.step',
    '2026-03-04T03:10:46',
    ( '' ),
    ( '' ),
    'SwSTEP 2.0',
    'SolidWorks 2025',
    '' );
FILE_SCHEMA (( 'CONFIG_CONTROL_DESIGN' ));
ENDSEC;

DATA;
#1 = CARTESIAN_POINT ( 'NONE',  ( 0.000000000000000000, 0.000000000000000000, 1.000000000000028644 ) ) ;
#2 = LINE ( 'NONE', #209, #75 ) ;
#3 = CARTESIAN_POINT ( 'NONE',  ( -6.999999999999964473, 9.184850993605126251E-16, 0.000000000000000000 ) ) ;
#4 = FACE_OUTER_BOUND ( 'NONE', #91, .T. ) ;
#5 = APPROVAL_PERSON_ORGANIZATION ( #64, #6, #142 ) ;
#6 = APPROVAL ( #136, 'UNSPECIFIED' ) ;
#7 = ORIENTED_EDGE ( 'NONE', *, *, #205, .T. ) ;
#8 = DATE_AND_TIME ( #134, #37 ) ;
#9 = COORDINATED_UNIVERSAL_TIME_OFFSET ( 10, 0, .AHEAD. ) ;
#10 =( GEOMETRIC_REPRESENTATION_CONTEXT ( 3 ) GLOBAL_UNCERTAINTY_ASSIGNED_CONTEXT ( ( #239 ) ) GLOBAL_UNIT_ASSIGNED_CONTEXT ( ( #140, #63, #228 ) ) REPRESENTATION_CONTEXT ( 'NONE', 'WORKASPACE' ) );
#11 = ORIENTED_EDGE ( 'NONE', *, *, #77, .F. ) ;
#12 = ORIENTED_EDGE ( 'NONE', *, *, #78, .T. ) ;
#13 = ORIENTED_EDGE ( 'NONE', *, *, #193, .T. ) ;
#14 = DIRECTION ( 'NONE',  ( -0.000000000000000000, -0.000000000000000000, 1.000000000000000000 ) ) ;
#15 = PERSON_AND_ORGANIZATION_ROLE ( 'design_owner' ) ;
#16 = CARTESIAN_POINT ( 'NONE',  ( 0.000000000000000000, 0.000000000000000000, 160.0000000000000000 ) ) ;
#17 = CARTESIAN_POINT ( 'NONE',  ( 0.000000000000000000, 0.000000000000000000, 0.000000000000000000 ) ) ;
#18 = CARTESIAN_POINT ( 'NONE',  ( 0.000000000000000000, 0.000000000000000000, 1.000000000000028644 ) ) ;
#19 = ORIENTED_EDGE ( 'NONE', *, *, #115, .T. ) ;
#20 = DIRECTION ( 'NONE',  ( 1.000000000000000000, 0.000000000000000000, -0.000000000000000000 ) ) ;
#21 = SECURITY_CLASSIFICATION ( '', '', #235 ) ;
#22 = CC_DESIGN_PERSON_AND_ORGANIZATION_ASSIGNMENT ( #146, #272, ( #135 ) ) ;
#23 = PERSON_AND_ORGANIZATION ( #229, #269 ) ;
#24 = DIRECTION ( 'NONE',  ( -0.000000000000000000, -0.000000000000000000, 1.000000000000000000 ) ) ;
#25 = ORIENTED_EDGE ( 'NONE', *, *, #166, .F. ) ;
#26 = DIRECTION ( 'NONE',  ( 1.000000000000000000, 0.000000000000000000, 0.000000000000000000 ) ) ;
#27 = CIRCLE ( 'NONE', #242, 8.000000000000000000 ) ;
#28 = CARTESIAN_POINT ( 'NONE',  ( 7.000000000000006217, 8.572527594031480092E-16, 160.0000000000000000 ) ) ;
#29 = CARTESIAN_POINT ( 'NONE',  ( 0.000000000000000000, 0.000000000000000000, 160.0000000000000000 ) ) ;
#30 = AXIS2_PLACEMENT_3D ( 'NONE', #66, #191, #106 ) ;
#31 = PERSON_AND_ORGANIZATION ( #229, #269 ) ;
#32 = ORIENTED_EDGE ( 'NONE', *, *, #78, .F. ) ;
#33 = ORIENTED_EDGE ( 'NONE', *, *, #243, .F. ) ;
#34 = ORIENTED_EDGE ( 'NONE', *, *, #190, .T. ) ;
#35 = ADVANCED_FACE ( 'NONE', ( #4 ), #172, .T. ) ;
#36 = AXIS2_PLACEMENT_3D ( 'NONE', #18, #14, #185 ) ;
#37 = LOCAL_TIME ( 14, 10, 46.00000000000000000, #158 ) ;
#38 = ORIENTED_EDGE ( 'NONE', *, *, #205, .F. ) ;
#39 = FACE_OUTER_BOUND ( 'NONE', #240, .T. ) ;
#40 = CC_DESIGN_SECURITY_CLASSIFICATION ( #21, ( #135 ) ) ;
#41 = DIRECTION ( 'NONE',  ( 1.000000000000000000, 0.000000000000000000, 0.000000000000000000 ) ) ;
#42 = DIRECTION ( 'NONE',  ( -0.000000000000000000, -0.000000000000000000, -1.000000000000000000 ) ) ;
#43 = CARTESIAN_POINT ( 'NONE',  ( 0.000000000000000000, 0.000000000000000000, 160.0000000000000000 ) ) ;
#44 = DIRECTION ( 'NONE',  ( -0.000000000000000000, -0.000000000000000000, -1.000000000000000000 ) ) ;
#45 = CIRCLE ( 'NONE', #84, 8.000000000000000000 ) ;
#46 = DIRECTION ( 'NONE',  ( -0.000000000000000000, -0.000000000000000000, -1.000000000000000000 ) ) ;
#47 = PRODUCT ( 'OEM-M16-AT-160-304_REV_', 'OEM-M16-AT-160-304_REV_', '', ( #171 ) ) ;
#48 = ORIENTED_EDGE ( 'NONE', *, *, #137, .F. ) ;
#49 = APPROVAL_ROLE ( '' ) ;
#50 = CC_DESIGN_APPROVAL ( #6, ( #21 ) ) ;
#51 = VERTEX_POINT ( 'NONE', #177 ) ;
#52 = LINE ( 'NONE', #122, #101 ) ;
#53 = ORIENTED_EDGE ( 'NONE', *, *, #104, .F. ) ;
#54 = CONICAL_SURFACE ( 'NONE', #181, 8.000000000000000000, 0.7853981633974517207 ) ;
#55 = ADVANCED_FACE ( 'NONE', ( #234 ), #58, .T. ) ;
#56 = LOCAL_TIME ( 14, 10, 46.00000000000000000, #81 ) ;
#57 = APPROVAL_STATUS ( 'not_yet_approved' ) ;
#58 = CONICAL_SURFACE ( 'NONE', #216, 7.000000000000006217, 0.7853981633974447263 ) ;
#59 = DIRECTION ( 'NONE',  ( 0.7071067811865500152, 0.000000000000000000, 0.7071067811865451302 ) ) ;
#60 = EDGE_LOOP ( 'NONE', ( #247, #144 ) ) ;
#61 = COORDINATED_UNIVERSAL_TIME_OFFSET ( 10, 0, .AHEAD. ) ;
#62 = CARTESIAN_POINT ( 'NONE',  ( -8.000000000000000000, 0.000000000000000000, 159.0000000000000000 ) ) ;
#63 =( NAMED_UNIT ( * ) PLANE_ANGLE_UNIT ( ) SI_UNIT ( $, .RADIAN. ) );
#64 = PERSON_AND_ORGANIZATION ( #229, #269 ) ;
#65 = AXIS2_PLACEMENT_3D ( 'NONE', #245, #80, #143 ) ;
#66 = CARTESIAN_POINT ( 'NONE',  ( 0.000000000000000000, 0.000000000000000000, 159.0000000000000000 ) ) ;
#67 = VERTEX_POINT ( 'NONE', #160 ) ;
#68 = CLOSED_SHELL ( 'NONE', ( #55, #231, #35, #256, #89, #267, #145, #83 ) ) ;
#69 = CONICAL_SURFACE ( 'NONE', #65, 7.000000000000006217, 0.7853981633974447263 ) ;
#70 = EDGE_CURVE ( 'NONE', #266, #246, #96, .T. ) ;
#71 = SHAPE_DEFINITION_REPRESENTATION ( #198, #73 ) ;
#72 = ORIENTED_EDGE ( 'NONE', *, *, #208, .T. ) ;
#73 = ADVANCED_BREP_SHAPE_REPRESENTATION ( 'OEM-M16-AT-160-304_REV_', ( #76, #186 ), #10 ) ;
#74 = APPROVAL_PERSON_ORGANIZATION ( #31, #263, #49 ) ;
#75 = VECTOR ( 'NONE', #87, 1000.000000000000000 ) ;
#76 = MANIFOLD_SOLID_BREP ( 'Chamfer1', #68 ) ;
#77 = EDGE_CURVE ( 'NONE', #67, #221, #250, .T. ) ;
#78 = EDGE_CURVE ( 'NONE', #215, #67, #148, .T. ) ;
#79 = CIRCLE ( 'NONE', #125, 7.000000000000006217 ) ;
#80 = DIRECTION ( 'NONE',  ( 0.000000000000000000, 0.000000000000000000, -1.000000000000000000 ) ) ;
#81 = COORDINATED_UNIVERSAL_TIME_OFFSET ( 10, 0, .AHEAD. ) ;
#82 = FACE_OUTER_BOUND ( 'NONE', #270, .T. ) ;
#83 = ADVANCED_FACE ( 'NONE', ( #162 ), #69, .T. ) ;
#84 = AXIS2_PLACEMENT_3D ( 'NONE', #192, #24, #230 ) ;
#85 = LINE ( 'NONE', #28, #207 ) ;
#86 = DIRECTION ( 'NONE',  ( 1.000000000000000000, 0.000000000000000000, 0.000000000000000000 ) ) ;
#87 = DIRECTION ( 'NONE',  ( -0.000000000000000000, -0.000000000000000000, -1.000000000000000000 ) ) ;
#88 = APPLICATION_PROTOCOL_DEFINITION ( 'international standard', 'config_control_design', 1994, #238 ) ;
#89 = ADVANCED_FACE ( 'NONE', ( #39 ), #121, .T. ) ;
#90 = CARTESIAN_POINT ( 'NONE',  ( 7.000000000000006217, 9.184850993605151889E-16, 160.0000000000000000 ) ) ;
#91 = EDGE_LOOP ( 'NONE', ( #72, #13, #19, #32 ) ) ;
#92 = AXIS2_PLACEMENT_3D ( 'NONE', #241, #268, #265 ) ;
#93 = DATE_TIME_ROLE ( 'classification_date' ) ;
#94 = ORIENTED_EDGE ( 'NONE', *, *, #104, .T. ) ;
#95 = CC_DESIGN_DATE_AND_TIME_ASSIGNMENT ( #187, #123, ( #110 ) ) ;
#96 = CIRCLE ( 'NONE', #100, 6.999999999999964473 ) ;
#97 = AXIS2_PLACEMENT_3D ( 'NONE', #157, #46, #151 ) ;
#98 = VERTEX_POINT ( 'NONE', #103 ) ;
#99 = ORIENTED_EDGE ( 'NONE', *, *, #133, .F. ) ;
#100 = AXIS2_PLACEMENT_3D ( 'NONE', #252, #42, #184 ) ;
#101 = VECTOR ( 'NONE', #138, 1000.000000000000114 ) ;
#102 = VECTOR ( 'NONE', #244, 1000.000000000000000 ) ;
#103 = CARTESIAN_POINT ( 'NONE',  ( 8.000000000000000000, 9.797174393178825657E-16, 159.0000000000000000 ) ) ;
#104 = EDGE_CURVE ( 'NONE', #266, #221, #212, .T. ) ;
#105 = DIRECTION ( 'NONE',  ( 1.000000000000000000, 0.000000000000000000, 0.000000000000000000 ) ) ;
#106 = DIRECTION ( 'NONE',  ( 1.000000000000000000, 0.000000000000000000, 0.000000000000000000 ) ) ;
#107 = AXIS2_PLACEMENT_3D ( 'NONE', #130, #44, #258 ) ;
#108 = DIRECTION ( 'NONE',  ( -1.000000000000000000, 0.000000000000000000, 0.000000000000000000 ) ) ;
#109 = CARTESIAN_POINT ( 'NONE',  ( 0.000000000000000000, 0.000000000000000000, 160.0000000000000000 ) ) ;
#110 = PRODUCT_DEFINITION ( 'UNKNOWN', '', #135, #175 ) ;
#111 = DATE_AND_TIME ( #152, #173 ) ;
#112 = ORIENTED_EDGE ( 'NONE', *, *, #208, .F. ) ;
#113 = DIRECTION ( 'NONE',  ( 0.000000000000000000, 0.000000000000000000, -1.000000000000000000 ) ) ;
#114 = APPLICATION_PROTOCOL_DEFINITION ( 'international standard', 'config_control_design', 1994, #254 ) ;
#115 = EDGE_CURVE ( 'NONE', #221, #67, #45, .T. ) ;
#116 = ORIENTED_EDGE ( 'NONE', *, *, #273, .F. ) ;
#117 = VERTEX_POINT ( 'NONE', #90 ) ;
#118 = EDGE_LOOP ( 'NONE', ( #99, #262, #112, #141 ) ) ;
#119 = ORIENTED_EDGE ( 'NONE', *, *, #115, .F. ) ;
#120 = PERSON_AND_ORGANIZATION_ROLE ( 'creator' ) ;
#121 = PLANE ( 'NONE',  #150 ) ;
#122 = CARTESIAN_POINT ( 'NONE',  ( -8.000000000000000000, 9.797174393178825657E-16, 1.000000000000028644 ) ) ;
#123 = DATE_TIME_ROLE ( 'creation_date' ) ;
#124 = DIRECTION ( 'NONE',  ( 0.000000000000000000, 0.000000000000000000, 1.000000000000000000 ) ) ;
#125 = AXIS2_PLACEMENT_3D ( 'NONE', #176, #259, #26 ) ;
#126 = EDGE_LOOP ( 'NONE', ( #274, #183, #12, #264 ) ) ;
#127 = CC_DESIGN_PERSON_AND_ORGANIZATION_ASSIGNMENT ( #132, #174, ( #21 ) ) ;
#128 = CARTESIAN_POINT ( 'NONE',  ( 8.000000000000000000, 9.797174393178825657E-16, 1.000000000000028644 ) ) ;
#129 = DIRECTION ( 'NONE',  ( -0.000000000000000000, -0.000000000000000000, -1.000000000000000000 ) ) ;
#130 = CARTESIAN_POINT ( 'NONE',  ( 0.000000000000000000, 0.000000000000000000, 160.0000000000000000 ) ) ;
#131 = FACE_OUTER_BOUND ( 'NONE', #156, .T. ) ;
#132 = PERSON_AND_ORGANIZATION ( #229, #269 ) ;
#133 = EDGE_CURVE ( 'NONE', #117, #51, #147, .T. ) ;
#134 = CALENDAR_DATE ( 2026, 4, 3 ) ;
#135 = PRODUCT_DEFINITION_FORMATION_WITH_SPECIFIED_SOURCE ( 'ANY', '', #47, .NOT_KNOWN. ) ;
#136 = APPROVAL_STATUS ( 'not_yet_approved' ) ;
#137 = EDGE_CURVE ( 'NONE', #98, #215, #251, .T. ) ;
#138 = DIRECTION ( 'NONE',  ( -0.7071067811865500152, 8.659560562354962440E-17, 0.7071067811865451302 ) ) ;
#139 = CC_DESIGN_APPROVAL ( #219, ( #135 ) ) ;
#140 =( LENGTH_UNIT ( ) NAMED_UNIT ( * ) SI_UNIT ( .MILLI., .METRE. ) );
#141 = ORIENTED_EDGE ( 'NONE', *, *, #190, .F. ) ;
#142 = APPROVAL_ROLE ( '' ) ;
#143 = DIRECTION ( 'NONE',  ( -1.000000000000000000, 0.000000000000000000, 0.000000000000000000 ) ) ;
#144 = ORIENTED_EDGE ( 'NONE', *, *, #166, .T. ) ;
#145 = ADVANCED_FACE ( 'NONE', ( #82 ), #203, .T. ) ;
#146 = PERSON_AND_ORGANIZATION ( #229, #269 ) ;
#147 = CIRCLE ( 'NONE', #211, 7.000000000000006217 ) ;
#148 = LINE ( 'NONE', #188, #102 ) ;
#149 = CALENDAR_DATE ( 2026, 4, 3 ) ;
#150 = AXIS2_PLACEMENT_3D ( 'NONE', #16, #124, #20 ) ;
#151 = DIRECTION ( 'NONE',  ( 1.000000000000000000, 0.000000000000000000, 0.000000000000000000 ) ) ;
#152 = CALENDAR_DATE ( 2026, 4, 3 ) ;
#153 = CARTESIAN_POINT ( 'NONE',  ( 6.999999999999964473, 0.000000000000000000, 0.000000000000000000 ) ) ;
#154 = AXIS2_PLACEMENT_3D ( 'NONE', #1, #249, #86 ) ;
#155 = DIRECTION ( 'NONE',  ( 1.000000000000000000, 0.000000000000000000, 0.000000000000000000 ) ) ;
#156 = EDGE_LOOP ( 'NONE', ( #25, #202, #119, #53 ) ) ;
#157 = CARTESIAN_POINT ( 'NONE',  ( 0.000000000000000000, 0.000000000000000000, 0.000000000000000000 ) ) ;
#158 = COORDINATED_UNIVERSAL_TIME_OFFSET ( 10, 0, .AHEAD. ) ;
#159 = LOCAL_TIME ( 14, 10, 46.00000000000000000, #9 ) ;
#160 = CARTESIAN_POINT ( 'NONE',  ( -8.000000000000000000, 0.000000000000000000, 1.000000000000028644 ) ) ;
#161 = PLANE ( 'NONE',  #92 ) ;
#162 = FACE_OUTER_BOUND ( 'NONE', #260, .T. ) ;
#163 = APPROVAL_ROLE ( '' ) ;
#164 = CC_DESIGN_APPROVAL ( #263, ( #110 ) ) ;
#165 = PERSON_AND_ORGANIZATION ( #229, #269 ) ;
#166 = EDGE_CURVE ( 'NONE', #246, #266, #189, .T. ) ;
#167 = ORIENTED_EDGE ( 'NONE', *, *, #70, .F. ) ;
#168 = CC_DESIGN_DATE_AND_TIME_ASSIGNMENT ( #111, #93, ( #21 ) ) ;
#169 = CARTESIAN_POINT ( 'NONE',  ( 8.000000000000000000, 0.000000000000000000, 1.000000000000028644 ) ) ;
#170 = CARTESIAN_POINT ( 'NONE',  ( 0.000000000000000000, 0.000000000000000000, 159.0000000000000000 ) ) ;
#171 = MECHANICAL_CONTEXT ( 'NONE', #238, 'mechanical' ) ;
#172 = CYLINDRICAL_SURFACE ( 'NONE', #107, 8.000000000000000000 ) ;
#173 = LOCAL_TIME ( 14, 10, 46.00000000000000000, #61 ) ;
#174 = PERSON_AND_ORGANIZATION_ROLE ( 'classification_officer' ) ;
#175 = DESIGN_CONTEXT ( 'detailed design', #254, 'design' ) ;
#176 = CARTESIAN_POINT ( 'NONE',  ( 0.000000000000000000, 0.000000000000000000, 160.0000000000000000 ) ) ;
#177 = CARTESIAN_POINT ( 'NONE',  ( -7.000000000000006217, 0.000000000000000000, 160.0000000000000000 ) ) ;
#178 = CC_DESIGN_PERSON_AND_ORGANIZATION_ASSIGNMENT ( #196, #232, ( #135 ) ) ;
#179 = APPROVAL_DATE_TIME ( #8, #263 ) ;
#180 = DATE_AND_TIME ( #204, #159 ) ;
#181 = AXIS2_PLACEMENT_3D ( 'NONE', #257, #226, #155 ) ;
#182 = APPROVAL_DATE_TIME ( #180, #6 ) ;
#183 = ORIENTED_EDGE ( 'NONE', *, *, #137, .T. ) ;
#184 = DIRECTION ( 'NONE',  ( 1.000000000000000000, 0.000000000000000000, 0.000000000000000000 ) ) ;
#185 = DIRECTION ( 'NONE',  ( 1.000000000000000000, 0.000000000000000000, 0.000000000000000000 ) ) ;
#186 = AXIS2_PLACEMENT_3D ( 'NONE', #17, #220, #261 ) ;
#187 = DATE_AND_TIME ( #149, #194 ) ;
#188 = CARTESIAN_POINT ( 'NONE',  ( -8.000000000000000000, 0.000000000000000000, 160.0000000000000000 ) ) ;
#189 = CIRCLE ( 'NONE', #97, 6.999999999999964473 ) ;
#190 = EDGE_CURVE ( 'NONE', #51, #215, #210, .T. ) ;
#191 = DIRECTION ( 'NONE',  ( 0.000000000000000000, 0.000000000000000000, -1.000000000000000000 ) ) ;
#192 = CARTESIAN_POINT ( 'NONE',  ( 0.000000000000000000, 0.000000000000000000, 1.000000000000028644 ) ) ;
#193 = EDGE_CURVE ( 'NONE', #98, #221, #2, .T. ) ;
#194 = LOCAL_TIME ( 14, 10, 46.00000000000000000, #271 ) ;
#195 = DIRECTION ( 'NONE',  ( 0.000000000000000000, 0.000000000000000000, 1.000000000000000000 ) ) ;
#196 = PERSON_AND_ORGANIZATION ( #229, #269 ) ;
#197 = DIRECTION ( 'NONE',  ( 0.7071067811865451302, 8.659560562354903276E-17, -0.7071067811865500152 ) ) ;
#198 = PRODUCT_DEFINITION_SHAPE ( 'NONE', 'NONE',  #110 ) ;
#199 = PRODUCT_RELATED_PRODUCT_CATEGORY ( 'detail', '', ( #47 ) ) ;
#200 = AXIS2_PLACEMENT_3D ( 'NONE', #43, #129, #108 ) ;
#201 = APPROVAL_STATUS ( 'not_yet_approved' ) ;
#202 = ORIENTED_EDGE ( 'NONE', *, *, #273, .T. ) ;
#203 = CONICAL_SURFACE ( 'NONE', #154, 8.000000000000000000, 0.7853981633974517207 ) ;
#204 = CALENDAR_DATE ( 2026, 4, 3 ) ;
#205 = EDGE_CURVE ( 'NONE', #51, #117, #79, .T. ) ;
#206 = APPROVAL_DATE_TIME ( #248, #219 ) ;
#207 = VECTOR ( 'NONE', #197, 1000.000000000000114 ) ;
#208 = EDGE_CURVE ( 'NONE', #215, #98, #27, .T. ) ;
#209 = CARTESIAN_POINT ( 'NONE',  ( 8.000000000000000000, 9.797174393178825657E-16, 160.0000000000000000 ) ) ;
#210 = LINE ( 'NONE', #213, #237 ) ;
#211 = AXIS2_PLACEMENT_3D ( 'NONE', #109, #195, #105 ) ;
#212 = LINE ( 'NONE', #169, #222 ) ;
#213 = CARTESIAN_POINT ( 'NONE',  ( -7.000000000000006217, 0.000000000000000000, 160.0000000000000000 ) ) ;
#214 = CC_DESIGN_PERSON_AND_ORGANIZATION_ASSIGNMENT ( #217, #120, ( #110 ) ) ;
#215 = VERTEX_POINT ( 'NONE', #62 ) ;
#216 = AXIS2_PLACEMENT_3D ( 'NONE', #29, #113, #236 ) ;
#217 = PERSON_AND_ORGANIZATION ( #229, #269 ) ;
#218 = APPROVAL_PERSON_ORGANIZATION ( #165, #219, #163 ) ;
#219 = APPROVAL ( #57, 'UNSPECIFIED' ) ;
#220 = DIRECTION ( 'NONE',  ( 0.000000000000000000, 0.000000000000000000, 1.000000000000000000 ) ) ;
#221 = VERTEX_POINT ( 'NONE', #128 ) ;
#222 = VECTOR ( 'NONE', #59, 1000.000000000000114 ) ;
#223 = CC_DESIGN_PERSON_AND_ORGANIZATION_ASSIGNMENT ( #23, #15, ( #47 ) ) ;
#224 = ORIENTED_EDGE ( 'NONE', *, *, #133, .T. ) ;
#225 = DIRECTION ( 'NONE',  ( -0.7071067811865451302, 0.000000000000000000, -0.7071067811865500152 ) ) ;
#226 = DIRECTION ( 'NONE',  ( -0.000000000000000000, -0.000000000000000000, 1.000000000000000000 ) ) ;
#227 = FACE_OUTER_BOUND ( 'NONE', #60, .T. ) ;
#228 =( NAMED_UNIT ( * ) SI_UNIT ( $, .STERADIAN. ) SOLID_ANGLE_UNIT ( ) );
#229 = PERSON ( 'UNSPECIFIED', 'UNSPECIFIED', 'UNSPECIFIED', ('UNSPECIFIED'), ('UNSPECIFIED'), ('UNSPECIFIED') ) ;
#230 = DIRECTION ( 'NONE',  ( 1.000000000000000000, 0.000000000000000000, 0.000000000000000000 ) ) ;
#231 = ADVANCED_FACE ( 'NONE', ( #131 ), #54, .T. ) ;
#232 = PERSON_AND_ORGANIZATION_ROLE ( 'design_supplier' ) ;
#233 = CYLINDRICAL_SURFACE ( 'NONE', #200, 8.000000000000000000 ) ;
#234 = FACE_OUTER_BOUND ( 'NONE', #118, .T. ) ;
#235 = SECURITY_CLASSIFICATION_LEVEL ( 'unclassified' ) ;
#236 = DIRECTION ( 'NONE',  ( -1.000000000000000000, 0.000000000000000000, 0.000000000000000000 ) ) ;
#237 = VECTOR ( 'NONE', #225, 1000.000000000000114 ) ;
#238 = APPLICATION_CONTEXT ( 'configuration controlled 3d designs of mechanical parts and assemblies' ) ;
#239 = UNCERTAINTY_MEASURE_WITH_UNIT (LENGTH_MEASURE( 1.000000000000000082E-05 ), #140, 'distance_accuracy_value', 'NONE');
#240 = EDGE_LOOP ( 'NONE', ( #7, #224 ) ) ;
#241 = CARTESIAN_POINT ( 'NONE',  ( 0.000000000000000000, 0.000000000000000000, 0.000000000000000000 ) ) ;
#242 = AXIS2_PLACEMENT_3D ( 'NONE', #170, #255, #41 ) ;
#243 = EDGE_CURVE ( 'NONE', #117, #98, #85, .T. ) ;
#244 = DIRECTION ( 'NONE',  ( -0.000000000000000000, -0.000000000000000000, -1.000000000000000000 ) ) ;
#245 = CARTESIAN_POINT ( 'NONE',  ( 0.000000000000000000, 0.000000000000000000, 160.0000000000000000 ) ) ;
#246 = VERTEX_POINT ( 'NONE', #3 ) ;
#247 = ORIENTED_EDGE ( 'NONE', *, *, #70, .T. ) ;
#248 = DATE_AND_TIME ( #275, #56 ) ;
#249 = DIRECTION ( 'NONE',  ( -0.000000000000000000, -0.000000000000000000, 1.000000000000000000 ) ) ;
#250 = CIRCLE ( 'NONE', #36, 8.000000000000000000 ) ;
#251 = CIRCLE ( 'NONE', #30, 8.000000000000000000 ) ;
#252 = CARTESIAN_POINT ( 'NONE',  ( 0.000000000000000000, 0.000000000000000000, 0.000000000000000000 ) ) ;
#253 = FACE_OUTER_BOUND ( 'NONE', #126, .T. ) ;
#254 = APPLICATION_CONTEXT ( 'configuration controlled 3d designs of mechanical parts and assemblies' ) ;
#255 = DIRECTION ( 'NONE',  ( 0.000000000000000000, 0.000000000000000000, -1.000000000000000000 ) ) ;
#256 = ADVANCED_FACE ( 'NONE', ( #253 ), #233, .T. ) ;
#257 = CARTESIAN_POINT ( 'NONE',  ( 0.000000000000000000, 0.000000000000000000, 1.000000000000028644 ) ) ;
#258 = DIRECTION ( 'NONE',  ( -1.000000000000000000, 0.000000000000000000, 0.000000000000000000 ) ) ;
#259 = DIRECTION ( 'NONE',  ( 0.000000000000000000, 0.000000000000000000, 1.000000000000000000 ) ) ;
#260 = EDGE_LOOP ( 'NONE', ( #33, #38, #34, #48 ) ) ;
#261 = DIRECTION ( 'NONE',  ( 1.000000000000000000, 0.000000000000000000, 0.000000000000000000 ) ) ;
#262 = ORIENTED_EDGE ( 'NONE', *, *, #243, .T. ) ;
#263 = APPROVAL ( #201, 'UNSPECIFIED' ) ;
#264 = ORIENTED_EDGE ( 'NONE', *, *, #77, .T. ) ;
#265 = DIRECTION ( 'NONE',  ( 1.000000000000000000, 0.000000000000000000, -0.000000000000000000 ) ) ;
#266 = VERTEX_POINT ( 'NONE', #153 ) ;
#267 = ADVANCED_FACE ( 'NONE', ( #227 ), #161, .F. ) ;
#268 = DIRECTION ( 'NONE',  ( 0.000000000000000000, 0.000000000000000000, 1.000000000000000000 ) ) ;
#269 = ORGANIZATION ( 'UNSPECIFIED', 'UNSPECIFIED', '' ) ;
#270 = EDGE_LOOP ( 'NONE', ( #116, #167, #94, #11 ) ) ;
#271 = COORDINATED_UNIVERSAL_TIME_OFFSET ( 10, 0, .AHEAD. ) ;
#272 = PERSON_AND_ORGANIZATION_ROLE ( 'creator' ) ;
#273 = EDGE_CURVE ( 'NONE', #246, #67, #52, .T. ) ;
#274 = ORIENTED_EDGE ( 'NONE', *, *, #193, .F. ) ;
#275 = CALENDAR_DATE ( 2026, 4, 3 ) ;
ENDSEC;
END-ISO-10303-21;
