ISO-10303-21;
HEADER;
FILE_DESCRIPTION (( 'STEP AP203' ),
    '1' );
FILE_NAME ('OEM-M16-AT-210-304_REV_.step',
    '2026-03-04T03:11:29',
    ( '' ),
    ( '' ),
    'SwSTEP 2.0',
    'SolidWorks 2025',
    '' );
FILE_SCHEMA (( 'CONFIG_CONTROL_DESIGN' ));
ENDSEC;

DATA;
#1 = EDGE_LOOP ( 'NONE', ( #120, #267, #252, #275 ) ) ;
#2 = ORIENTED_EDGE ( 'NONE', *, *, #74, .T. ) ;
#3 = CC_DESIGN_APPROVAL ( #164, ( #129 ) ) ;
#4 = ORIENTED_EDGE ( 'NONE', *, *, #184, .T. ) ;
#5 = DIRECTION ( 'NONE',  ( -0.000000000000000000, -0.000000000000000000, 1.000000000000000000 ) ) ;
#6 = CARTESIAN_POINT ( 'NONE',  ( 0.000000000000000000, 0.000000000000000000, 210.0000000000000000 ) ) ;
#7 = DESIGN_CONTEXT ( 'detailed design', #100, 'design' ) ;
#8 = CARTESIAN_POINT ( 'NONE',  ( 7.000000000000006217, 9.184850993605151889E-16, 210.0000000000000000 ) ) ;
#9 = VECTOR ( 'NONE', #127, 1000.000000000000114 ) ;
#10 = DIRECTION ( 'NONE',  ( -1.000000000000000000, 0.000000000000000000, 0.000000000000000000 ) ) ;
#11 = DIRECTION ( 'NONE',  ( -0.000000000000000000, -0.000000000000000000, -1.000000000000000000 ) ) ;
#12 = DATE_TIME_ROLE ( 'classification_date' ) ;
#13 = CALENDAR_DATE ( 2026, 4, 3 ) ;
#14 = VECTOR ( 'NONE', #24, 1000.000000000000000 ) ;
#15 = PERSON_AND_ORGANIZATION ( #140, #111 ) ;
#16 = UNCERTAINTY_MEASURE_WITH_UNIT (LENGTH_MEASURE( 1.000000000000000082E-05 ), #201, 'distance_accuracy_value', 'NONE');
#17 = FACE_OUTER_BOUND ( 'NONE', #142, .T. ) ;
#18 = ORIENTED_EDGE ( 'NONE', *, *, #243, .F. ) ;
#19 = EDGE_LOOP ( 'NONE', ( #205, #4 ) ) ;
#20 = ORIENTED_EDGE ( 'NONE', *, *, #108, .T. ) ;
#21 = AXIS2_PLACEMENT_3D ( 'NONE', #105, #130, #128 ) ;
#22 = CARTESIAN_POINT ( 'NONE',  ( -8.000000000000000000, 9.797174393178825657E-16, 1.000000000000000888 ) ) ;
#23 = FACE_OUTER_BOUND ( 'NONE', #1, .T. ) ;
#24 = DIRECTION ( 'NONE',  ( -0.000000000000000000, -0.000000000000000000, -1.000000000000000000 ) ) ;
#25 = PLANE ( 'NONE',  #26 ) ;
#26 = AXIS2_PLACEMENT_3D ( 'NONE', #250, #247, #159 ) ;
#27 = DIRECTION ( 'NONE',  ( -1.000000000000000000, 0.000000000000000000, 0.000000000000000000 ) ) ;
#28 = CALENDAR_DATE ( 2026, 4, 3 ) ;
#29 = ADVANCED_FACE ( 'NONE', ( #70 ), #61, .T. ) ;
#30 = CIRCLE ( 'NONE', #21, 7.000000000000006217 ) ;
#31 = COORDINATED_UNIVERSAL_TIME_OFFSET ( 10, 0, .AHEAD. ) ;
#32 = ADVANCED_BREP_SHAPE_REPRESENTATION ( 'OEM-M16-AT-210-304_REV_', ( #67, #161 ), #263 ) ;
#33 = APPLICATION_PROTOCOL_DEFINITION ( 'international standard', 'config_control_design', 1994, #253 ) ;
#34 = CIRCLE ( 'NONE', #96, 8.000000000000000000 ) ;
#35 = CARTESIAN_POINT ( 'NONE',  ( 7.000000000000006217, 0.000000000000000000, 0.000000000000000000 ) ) ;
#36 = EDGE_LOOP ( 'NONE', ( #189, #141 ) ) ;
#37 = CIRCLE ( 'NONE', #76, 7.000000000000006217 ) ;
#38 = VERTEX_POINT ( 'NONE', #228 ) ;
#39 = ORIENTED_EDGE ( 'NONE', *, *, #224, .F. ) ;
#40 = EDGE_LOOP ( 'NONE', ( #231, #20, #77, #187 ) ) ;
#41 = CC_DESIGN_SECURITY_CLASSIFICATION ( #87, ( #129 ) ) ;
#42 = FACE_OUTER_BOUND ( 'NONE', #19, .T. ) ;
#43 = LINE ( 'NONE', #65, #9 ) ;
#44 = DIRECTION ( 'NONE',  ( 0.7071067811865451302, 0.000000000000000000, 0.7071067811865500152 ) ) ;
#45 = CARTESIAN_POINT ( 'NONE',  ( 0.000000000000000000, 0.000000000000000000, 210.0000000000000000 ) ) ;
#46 = VECTOR ( 'NONE', #172, 1000.000000000000114 ) ;
#47 = LINE ( 'NONE', #86, #196 ) ;
#48 = COORDINATED_UNIVERSAL_TIME_OFFSET ( 10, 0, .AHEAD. ) ;
#49 = PERSON_AND_ORGANIZATION_ROLE ( 'creator' ) ;
#50 = APPROVAL_PERSON_ORGANIZATION ( #203, #164, #225 ) ;
#51 = ADVANCED_FACE ( 'NONE', ( #17 ), #139, .T. ) ;
#52 = CARTESIAN_POINT ( 'NONE',  ( 0.000000000000000000, 0.000000000000000000, 0.000000000000000000 ) ) ;
#53 = DATE_AND_TIME ( #13, #206 ) ;
#54 = PERSON_AND_ORGANIZATION_ROLE ( 'creator' ) ;
#55 = DIRECTION ( 'NONE',  ( 1.000000000000000000, 0.000000000000000000, 0.000000000000000000 ) ) ;
#56 = CC_DESIGN_PERSON_AND_ORGANIZATION_ASSIGNMENT ( #15, #97, ( #129 ) ) ;
#57 = VERTEX_POINT ( 'NONE', #145 ) ;
#58 = VERTEX_POINT ( 'NONE', #123 ) ;
#59 = AXIS2_PLACEMENT_3D ( 'NONE', #238, #236, #10 ) ;
#60 = ORIENTED_EDGE ( 'NONE', *, *, #118, .F. ) ;
#61 = CYLINDRICAL_SURFACE ( 'NONE', #212, 8.000000000000000000 ) ;
#62 = DIRECTION ( 'NONE',  ( 1.000000000000000000, 0.000000000000000000, 0.000000000000000000 ) ) ;
#63 = CARTESIAN_POINT ( 'NONE',  ( 0.000000000000000000, 0.000000000000000000, 1.000000000000000888 ) ) ;
#64 = PLANE ( 'NONE',  #218 ) ;
#65 = CARTESIAN_POINT ( 'NONE',  ( 7.000000000000006217, 8.572527594031480092E-16, 210.0000000000000000 ) ) ;
#66 = DIRECTION ( 'NONE',  ( -1.000000000000000000, 0.000000000000000000, 0.000000000000000000 ) ) ;
#67 = MANIFOLD_SOLID_BREP ( 'Chamfer1', #81 ) ;
#68 = PERSON_AND_ORGANIZATION ( #140, #111 ) ;
#69 = AXIS2_PLACEMENT_3D ( 'NONE', #88, #217, #262 ) ;
#70 = FACE_OUTER_BOUND ( 'NONE', #122, .T. ) ;
#71 = CC_DESIGN_PERSON_AND_ORGANIZATION_ASSIGNMENT ( #73, #138, ( #87 ) ) ;
#72 = PERSON_AND_ORGANIZATION ( #140, #111 ) ;
#73 = PERSON_AND_ORGANIZATION ( #140, #111 ) ;
#74 = EDGE_CURVE ( 'NONE', #38, #57, #234, .T. ) ;
#75 = PRODUCT ( 'OEM-M16-AT-210-304_REV_', 'OEM-M16-AT-210-304_REV_', '', ( #112 ) ) ;
#76 = AXIS2_PLACEMENT_3D ( 'NONE', #216, #109, #195 ) ;
#77 = ORIENTED_EDGE ( 'NONE', *, *, #79, .F. ) ;
#78 = EDGE_LOOP ( 'NONE', ( #210, #39, #207, #186 ) ) ;
#79 = EDGE_CURVE ( 'NONE', #232, #169, #149, .T. ) ;
#80 = DIRECTION ( 'NONE',  ( -0.000000000000000000, -0.000000000000000000, 1.000000000000000000 ) ) ;
#81 = CLOSED_SHELL ( 'NONE', ( #179, #51, #29, #151, #194, #273, #124, #162 ) ) ;
#82 = PRODUCT_RELATED_PRODUCT_CATEGORY ( 'detail', '', ( #75 ) ) ;
#83 = SHAPE_DEFINITION_REPRESENTATION ( #119, #32 ) ;
#84 = VERTEX_POINT ( 'NONE', #35 ) ;
#85 = CARTESIAN_POINT ( 'NONE',  ( 8.000000000000000000, 9.797174393178825657E-16, 209.0000000000000000 ) ) ;
#86 = CARTESIAN_POINT ( 'NONE',  ( 8.000000000000000000, 9.797174393178825657E-16, 210.0000000000000000 ) ) ;
#87 = SECURITY_CLASSIFICATION ( '', '', #183 ) ;
#88 = CARTESIAN_POINT ( 'NONE',  ( 0.000000000000000000, 0.000000000000000000, 0.000000000000000000 ) ) ;
#89 = DIRECTION ( 'NONE',  ( 0.000000000000000000, 0.000000000000000000, 1.000000000000000000 ) ) ;
#90 = CARTESIAN_POINT ( 'NONE',  ( 0.000000000000000000, 0.000000000000000000, 210.0000000000000000 ) ) ;
#91 = CIRCLE ( 'NONE', #241, 7.000000000000006217 ) ;
#92 = PERSON_AND_ORGANIZATION ( #140, #111 ) ;
#93 = APPROVAL_ROLE ( '' ) ;
#94 = EDGE_CURVE ( 'NONE', #169, #58, #47, .T. ) ;
#95 =( NAMED_UNIT ( * ) PLANE_ANGLE_UNIT ( ) SI_UNIT ( $, .RADIAN. ) );
#96 = AXIS2_PLACEMENT_3D ( 'NONE', #175, #150, #170 ) ;
#97 = PERSON_AND_ORGANIZATION_ROLE ( 'design_supplier' ) ;
#98 = AXIS2_PLACEMENT_3D ( 'NONE', #104, #219, #27 ) ;
#99 = ORIENTED_EDGE ( 'NONE', *, *, #243, .T. ) ;
#100 = APPLICATION_CONTEXT ( 'configuration controlled 3d designs of mechanical parts and assemblies' ) ;
#101 = CARTESIAN_POINT ( 'NONE',  ( 0.000000000000000000, 0.000000000000000000, 210.0000000000000000 ) ) ;
#102 = ORIENTED_EDGE ( 'NONE', *, *, #108, .F. ) ;
#103 = CC_DESIGN_APPROVAL ( #113, ( #87 ) ) ;
#104 = CARTESIAN_POINT ( 'NONE',  ( 0.000000000000000000, 0.000000000000000000, 210.0000000000000000 ) ) ;
#105 = CARTESIAN_POINT ( 'NONE',  ( 0.000000000000000000, 0.000000000000000000, 210.0000000000000000 ) ) ;
#106 = FACE_OUTER_BOUND ( 'NONE', #36, .T. ) ;
#107 = CARTESIAN_POINT ( 'NONE',  ( 0.000000000000000000, 0.000000000000000000, 1.000000000000000888 ) ) ;
#108 = EDGE_CURVE ( 'NONE', #166, #169, #43, .T. ) ;
#109 = DIRECTION ( 'NONE',  ( -0.000000000000000000, -0.000000000000000000, -1.000000000000000000 ) ) ;
#110 = COORDINATED_UNIVERSAL_TIME_OFFSET ( 10, 0, .AHEAD. ) ;
#111 = ORGANIZATION ( 'UNSPECIFIED', 'UNSPECIFIED', '' ) ;
#112 = MECHANICAL_CONTEXT ( 'NONE', #253, 'mechanical' ) ;
#113 = APPROVAL ( #178, 'UNSPECIFIED' ) ;
#114 = PERSON_AND_ORGANIZATION ( #140, #111 ) ;
#115 = APPROVAL_DATE_TIME ( #227, #221 ) ;
#116 = CIRCLE ( 'NONE', #69, 7.000000000000006217 ) ;
#117 = ORIENTED_EDGE ( 'NONE', *, *, #209, .F. ) ;
#118 = EDGE_CURVE ( 'NONE', #254, #166, #91, .T. ) ;
#119 = PRODUCT_DEFINITION_SHAPE ( 'NONE', 'NONE',  #182 ) ;
#120 = ORIENTED_EDGE ( 'NONE', *, *, #94, .F. ) ;
#121 = AXIS2_PLACEMENT_3D ( 'NONE', #63, #193, #198 ) ;
#122 = EDGE_LOOP ( 'NONE', ( #256, #163, #99, #229 ) ) ;
#123 = CARTESIAN_POINT ( 'NONE',  ( 8.000000000000000000, 9.797174393178825657E-16, 1.000000000000000888 ) ) ;
#124 = ADVANCED_FACE ( 'NONE', ( #153 ), #240, .T. ) ;
#125 = DIRECTION ( 'NONE',  ( -0.000000000000000000, -0.000000000000000000, -1.000000000000000000 ) ) ;
#126 = DIRECTION ( 'NONE',  ( 1.000000000000000000, 0.000000000000000000, -0.000000000000000000 ) ) ;
#127 = DIRECTION ( 'NONE',  ( 0.7071067811865451302, 8.659560562354903276E-17, -0.7071067811865500152 ) ) ;
#128 = DIRECTION ( 'NONE',  ( 1.000000000000000000, 0.000000000000000000, 0.000000000000000000 ) ) ;
#129 = PRODUCT_DEFINITION_FORMATION_WITH_SPECIFIED_SOURCE ( 'ANY', '', #75, .NOT_KNOWN. ) ;
#130 = DIRECTION ( 'NONE',  ( 0.000000000000000000, 0.000000000000000000, 1.000000000000000000 ) ) ;
#131 = CC_DESIGN_DATE_AND_TIME_ASSIGNMENT ( #199, #12, ( #87 ) ) ;
#132 = DIRECTION ( 'NONE',  ( 1.000000000000000000, 0.000000000000000000, 0.000000000000000000 ) ) ;
#133 = COORDINATED_UNIVERSAL_TIME_OFFSET ( 10, 0, .AHEAD. ) ;
#134 = CC_DESIGN_APPROVAL ( #221, ( #182 ) ) ;
#135 = DATE_TIME_ROLE ( 'creation_date' ) ;
#136 = DIRECTION ( 'NONE',  ( 0.000000000000000000, 0.000000000000000000, 1.000000000000000000 ) ) ;
#137 = PERSON_AND_ORGANIZATION_ROLE ( 'design_owner' ) ;
#138 = PERSON_AND_ORGANIZATION_ROLE ( 'classification_officer' ) ;
#139 = CONICAL_SURFACE ( 'NONE', #190, 8.000000000000000000, 0.7853981633974447263 ) ;
#140 = PERSON ( 'UNSPECIFIED', 'UNSPECIFIED', 'UNSPECIFIED', ('UNSPECIFIED'), ('UNSPECIFIED'), ('UNSPECIFIED') ) ;
#141 = ORIENTED_EDGE ( 'NONE', *, *, #213, .T. ) ;
#142 = EDGE_LOOP ( 'NONE', ( #143, #2, #18, #117 ) ) ;
#143 = ORIENTED_EDGE ( 'NONE', *, *, #213, .F. ) ;
#144 = VECTOR ( 'NONE', #44, 1000.000000000000114 ) ;
#145 = CARTESIAN_POINT ( 'NONE',  ( -8.000000000000000000, 0.000000000000000000, 1.000000000000000888 ) ) ;
#146 = DIRECTION ( 'NONE',  ( -1.000000000000000000, 0.000000000000000000, 0.000000000000000000 ) ) ;
#147 = EDGE_CURVE ( 'NONE', #254, #232, #176, .T. ) ;
#148 = LINE ( 'NONE', #235, #14 ) ;
#149 = CIRCLE ( 'NONE', #259, 8.000000000000000000 ) ;
#150 = DIRECTION ( 'NONE',  ( 0.000000000000000000, 0.000000000000000000, -1.000000000000000000 ) ) ;
#151 = ADVANCED_FACE ( 'NONE', ( #23 ), #258, .T. ) ;
#152 = CARTESIAN_POINT ( 'NONE',  ( -7.000000000000006217, 0.000000000000000000, 210.0000000000000000 ) ) ;
#153 = FACE_OUTER_BOUND ( 'NONE', #78, .T. ) ;
#154 = LOCAL_TIME ( 14, 11, 29.00000000000000000, #133 ) ;
#155 = CARTESIAN_POINT ( 'NONE',  ( -8.000000000000000000, 0.000000000000000000, 209.0000000000000000 ) ) ;
#156 = CALENDAR_DATE ( 2026, 4, 3 ) ;
#157 = COORDINATED_UNIVERSAL_TIME_OFFSET ( 10, 0, .AHEAD. ) ;
#158 = AXIS2_PLACEMENT_3D ( 'NONE', #90, #242, #66 ) ;
#159 = DIRECTION ( 'NONE',  ( 1.000000000000000000, 0.000000000000000000, -0.000000000000000000 ) ) ;
#160 = CARTESIAN_POINT ( 'NONE',  ( 0.000000000000000000, 0.000000000000000000, 209.0000000000000000 ) ) ;
#161 = AXIS2_PLACEMENT_3D ( 'NONE', #52, #136, #202 ) ;
#162 = ADVANCED_FACE ( 'NONE', ( #214 ), #230, .T. ) ;
#163 = ORIENTED_EDGE ( 'NONE', *, *, #94, .T. ) ;
#164 = APPROVAL ( #270, 'UNSPECIFIED' ) ;
#165 = APPROVAL_DATE_TIME ( #272, #113 ) ;
#166 = VERTEX_POINT ( 'NONE', #8 ) ;
#167 = DIRECTION ( 'NONE',  ( 1.000000000000000000, 0.000000000000000000, 0.000000000000000000 ) ) ;
#168 = CALENDAR_DATE ( 2026, 4, 3 ) ;
#169 = VERTEX_POINT ( 'NONE', #85 ) ;
#170 = DIRECTION ( 'NONE',  ( 1.000000000000000000, 0.000000000000000000, 0.000000000000000000 ) ) ;
#171 = CC_DESIGN_PERSON_AND_ORGANIZATION_ASSIGNMENT ( #68, #137, ( #75 ) ) ;
#172 = DIRECTION ( 'NONE',  ( -0.7071067811865451302, 0.000000000000000000, -0.7071067811865500152 ) ) ;
#173 = LOCAL_TIME ( 14, 11, 29.00000000000000000, #157 ) ;
#174 = APPROVAL_PERSON_ORGANIZATION ( #92, #113, #244 ) ;
#175 = CARTESIAN_POINT ( 'NONE',  ( 0.000000000000000000, 0.000000000000000000, 209.0000000000000000 ) ) ;
#176 = LINE ( 'NONE', #197, #46 ) ;
#177 = FACE_OUTER_BOUND ( 'NONE', #40, .T. ) ;
#178 = APPROVAL_STATUS ( 'not_yet_approved' ) ;
#179 = ADVANCED_FACE ( 'NONE', ( #177 ), #200, .T. ) ;
#180 = DIRECTION ( 'NONE',  ( -0.7071067811865451302, 8.659560562354903276E-17, 0.7071067811865500152 ) ) ;
#181 = DATE_AND_TIME ( #245, #173 ) ;
#182 = PRODUCT_DEFINITION ( 'UNKNOWN', '', #129, #7 ) ;
#183 = SECURITY_CLASSIFICATION_LEVEL ( 'unclassified' ) ;
#184 = EDGE_CURVE ( 'NONE', #166, #254, #30, .T. ) ;
#185 = CIRCLE ( 'NONE', #268, 8.000000000000000000 ) ;
#186 = ORIENTED_EDGE ( 'NONE', *, *, #215, .F. ) ;
#187 = ORIENTED_EDGE ( 'NONE', *, *, #147, .F. ) ;
#188 = CARTESIAN_POINT ( 'NONE',  ( 0.000000000000000000, 0.000000000000000000, 1.000000000000000888 ) ) ;
#189 = ORIENTED_EDGE ( 'NONE', *, *, #224, .T. ) ;
#190 = AXIS2_PLACEMENT_3D ( 'NONE', #188, #80, #167 ) ;
#191 = CC_DESIGN_PERSON_AND_ORGANIZATION_ASSIGNMENT ( #271, #49, ( #182 ) ) ;
#192 = LINE ( 'NONE', #261, #144 ) ;
#193 = DIRECTION ( 'NONE',  ( -0.000000000000000000, -0.000000000000000000, 1.000000000000000000 ) ) ;
#194 = ADVANCED_FACE ( 'NONE', ( #42 ), #64, .T. ) ;
#195 = DIRECTION ( 'NONE',  ( 1.000000000000000000, 0.000000000000000000, 0.000000000000000000 ) ) ;
#196 = VECTOR ( 'NONE', #11, 1000.000000000000000 ) ;
#197 = CARTESIAN_POINT ( 'NONE',  ( -7.000000000000006217, 0.000000000000000000, 210.0000000000000000 ) ) ;
#198 = DIRECTION ( 'NONE',  ( 1.000000000000000000, 0.000000000000000000, 0.000000000000000000 ) ) ;
#199 = DATE_AND_TIME ( #28, #154 ) ;
#200 = CONICAL_SURFACE ( 'NONE', #98, 7.000000000000006217, 0.7853981633974447263 ) ;
#201 =( LENGTH_UNIT ( ) NAMED_UNIT ( * ) SI_UNIT ( .MILLI., .METRE. ) );
#202 = DIRECTION ( 'NONE',  ( 1.000000000000000000, 0.000000000000000000, 0.000000000000000000 ) ) ;
#203 = PERSON_AND_ORGANIZATION ( #140, #111 ) ;
#204 = VECTOR ( 'NONE', #180, 1000.000000000000114 ) ;
#205 = ORIENTED_EDGE ( 'NONE', *, *, #118, .T. ) ;
#206 = LOCAL_TIME ( 14, 11, 29.00000000000000000, #31 ) ;
#207 = ORIENTED_EDGE ( 'NONE', *, *, #209, .T. ) ;
#208 = ORIENTED_EDGE ( 'NONE', *, *, #147, .T. ) ;
#209 = EDGE_CURVE ( 'NONE', #84, #58, #192, .T. ) ;
#210 = ORIENTED_EDGE ( 'NONE', *, *, #74, .F. ) ;
#211 = ORIENTED_EDGE ( 'NONE', *, *, #239, .F. ) ;
#212 = AXIS2_PLACEMENT_3D ( 'NONE', #101, #125, #146 ) ;
#213 = EDGE_CURVE ( 'NONE', #38, #84, #37, .T. ) ;
#214 = FACE_OUTER_BOUND ( 'NONE', #255, .T. ) ;
#215 = EDGE_CURVE ( 'NONE', #57, #58, #246, .T. ) ;
#216 = CARTESIAN_POINT ( 'NONE',  ( 0.000000000000000000, 0.000000000000000000, 0.000000000000000000 ) ) ;
#217 = DIRECTION ( 'NONE',  ( -0.000000000000000000, -0.000000000000000000, -1.000000000000000000 ) ) ;
#218 = AXIS2_PLACEMENT_3D ( 'NONE', #6, #89, #126 ) ;
#219 = DIRECTION ( 'NONE',  ( 0.000000000000000000, 0.000000000000000000, -1.000000000000000000 ) ) ;
#220 = DIRECTION ( 'NONE',  ( 0.000000000000000000, 0.000000000000000000, 1.000000000000000000 ) ) ;
#221 = APPROVAL ( #226, 'UNSPECIFIED' ) ;
#222 =( NAMED_UNIT ( * ) SI_UNIT ( $, .STERADIAN. ) SOLID_ANGLE_UNIT ( ) );
#223 = LOCAL_TIME ( 14, 11, 29.00000000000000000, #110 ) ;
#224 = EDGE_CURVE ( 'NONE', #84, #38, #116, .T. ) ;
#225 = APPROVAL_ROLE ( '' ) ;
#226 = APPROVAL_STATUS ( 'not_yet_approved' ) ;
#227 = DATE_AND_TIME ( #156, #223 ) ;
#228 = CARTESIAN_POINT ( 'NONE',  ( -7.000000000000006217, 9.184850993605151889E-16, 0.000000000000000000 ) ) ;
#229 = ORIENTED_EDGE ( 'NONE', *, *, #264, .F. ) ;
#230 = CONICAL_SURFACE ( 'NONE', #59, 7.000000000000006217, 0.7853981633974447263 ) ;
#231 = ORIENTED_EDGE ( 'NONE', *, *, #184, .F. ) ;
#232 = VERTEX_POINT ( 'NONE', #155 ) ;
#233 = CC_DESIGN_PERSON_AND_ORGANIZATION_ASSIGNMENT ( #72, #54, ( #129 ) ) ;
#234 = LINE ( 'NONE', #22, #204 ) ;
#235 = CARTESIAN_POINT ( 'NONE',  ( -8.000000000000000000, 0.000000000000000000, 210.0000000000000000 ) ) ;
#236 = DIRECTION ( 'NONE',  ( 0.000000000000000000, 0.000000000000000000, -1.000000000000000000 ) ) ;
#237 = DIRECTION ( 'NONE',  ( 1.000000000000000000, 0.000000000000000000, 0.000000000000000000 ) ) ;
#238 = CARTESIAN_POINT ( 'NONE',  ( 0.000000000000000000, 0.000000000000000000, 210.0000000000000000 ) ) ;
#239 = EDGE_CURVE ( 'NONE', #169, #232, #34, .T. ) ;
#240 = CONICAL_SURFACE ( 'NONE', #251, 8.000000000000000000, 0.7853981633974447263 ) ;
#241 = AXIS2_PLACEMENT_3D ( 'NONE', #45, #220, #132 ) ;
#242 = DIRECTION ( 'NONE',  ( -0.000000000000000000, -0.000000000000000000, -1.000000000000000000 ) ) ;
#243 = EDGE_CURVE ( 'NONE', #58, #57, #185, .T. ) ;
#244 = APPROVAL_ROLE ( '' ) ;
#245 = CALENDAR_DATE ( 2026, 4, 3 ) ;
#246 = CIRCLE ( 'NONE', #121, 8.000000000000000000 ) ;
#247 = DIRECTION ( 'NONE',  ( 0.000000000000000000, 0.000000000000000000, 1.000000000000000000 ) ) ;
#248 = DIRECTION ( 'NONE',  ( 0.000000000000000000, 0.000000000000000000, -1.000000000000000000 ) ) ;
#249 = APPROVAL_DATE_TIME ( #53, #164 ) ;
#250 = CARTESIAN_POINT ( 'NONE',  ( 0.000000000000000000, 0.000000000000000000, 0.000000000000000000 ) ) ;
#251 = AXIS2_PLACEMENT_3D ( 'NONE', #107, #5, #237 ) ;
#252 = ORIENTED_EDGE ( 'NONE', *, *, #264, .T. ) ;
#253 = APPLICATION_CONTEXT ( 'configuration controlled 3d designs of mechanical parts and assemblies' ) ;
#254 = VERTEX_POINT ( 'NONE', #152 ) ;
#255 = EDGE_LOOP ( 'NONE', ( #102, #60, #208, #211 ) ) ;
#256 = ORIENTED_EDGE ( 'NONE', *, *, #79, .T. ) ;
#257 = DIRECTION ( 'NONE',  ( -0.000000000000000000, -0.000000000000000000, 1.000000000000000000 ) ) ;
#258 = CYLINDRICAL_SURFACE ( 'NONE', #158, 8.000000000000000000 ) ;
#259 = AXIS2_PLACEMENT_3D ( 'NONE', #160, #248, #55 ) ;
#260 = CARTESIAN_POINT ( 'NONE',  ( 0.000000000000000000, 0.000000000000000000, 1.000000000000000888 ) ) ;
#261 = CARTESIAN_POINT ( 'NONE',  ( 8.000000000000000000, 0.000000000000000000, 1.000000000000000888 ) ) ;
#262 = DIRECTION ( 'NONE',  ( 1.000000000000000000, 0.000000000000000000, 0.000000000000000000 ) ) ;
#263 =( GEOMETRIC_REPRESENTATION_CONTEXT ( 3 ) GLOBAL_UNCERTAINTY_ASSIGNED_CONTEXT ( ( #16 ) ) GLOBAL_UNIT_ASSIGNED_CONTEXT ( ( #201, #95, #222 ) ) REPRESENTATION_CONTEXT ( 'NONE', 'WORKASPACE' ) );
#264 = EDGE_CURVE ( 'NONE', #232, #57, #148, .T. ) ;
#265 = APPLICATION_PROTOCOL_DEFINITION ( 'international standard', 'config_control_design', 1994, #100 ) ;
#266 = CC_DESIGN_DATE_AND_TIME_ASSIGNMENT ( #181, #135, ( #182 ) ) ;
#267 = ORIENTED_EDGE ( 'NONE', *, *, #239, .T. ) ;
#268 = AXIS2_PLACEMENT_3D ( 'NONE', #260, #257, #62 ) ;
#269 = LOCAL_TIME ( 14, 11, 29.00000000000000000, #48 ) ;
#270 = APPROVAL_STATUS ( 'not_yet_approved' ) ;
#271 = PERSON_AND_ORGANIZATION ( #140, #111 ) ;
#272 = DATE_AND_TIME ( #168, #269 ) ;
#273 = ADVANCED_FACE ( 'NONE', ( #106 ), #25, .F. ) ;
#274 = APPROVAL_PERSON_ORGANIZATION ( #114, #221, #93 ) ;
#275 = ORIENTED_EDGE ( 'NONE', *, *, #215, .T. ) ;
ENDSEC;
END-ISO-10303-21;
