ISO-10303-21;
HEADER;
FILE_DESCRIPTION (( 'STEP AP203' ),
    '1' );
FILE_NAME ('OEM-SSP26H-065 _REV_.step',
    '2025-08-17T03:49:44',
    ( '' ),
    ( '' ),
    'SwSTEP 2.0',
    'SolidWorks 2024',
    '' );
FILE_SCHEMA (( 'CONFIG_CONTROL_DESIGN' ));
ENDSEC;

DATA;
#1 = PERSON_AND_ORGANIZATION_ROLE ( 'design_supplier' ) ;
#2 = FACE_OUTER_BOUND ( 'NONE', #144, .T. ) ;
#3 = CC_DESIGN_PERSON_AND_ORGANIZATION_ASSIGNMENT ( #94, #170, ( #138 ) ) ;
#4 = ORIENTED_EDGE ( 'NONE', *, *, #216, .F. ) ;
#5 = DIRECTION ( 'NONE',  ( -1.000000000000000000, 0.000000000000000000, 0.000000000000000000 ) ) ;
#6 = AXIS2_PLACEMENT_3D ( 'NONE', #104, #218, #175 ) ;
#7 = LOCAL_TIME ( 13, 49, 44.00000000000000000, #43 ) ;
#8 = ORIENTED_EDGE ( 'NONE', *, *, #151, .T. ) ;
#9 = CARTESIAN_POINT ( 'NONE',  ( 0.000000000000000000, 0.000000000000000000, -15.24999999999999822 ) ) ;
#10 = VERTEX_POINT ( 'NONE', #129 ) ;
#11 = CYLINDRICAL_SURFACE ( 'NONE', #56, 42.04999999999999716 ) ;
#12 = ORIENTED_EDGE ( 'NONE', *, *, #26, .F. ) ;
#13 = VECTOR ( 'NONE', #58, 1000.000000000000000 ) ;
#14 = DIRECTION ( 'NONE',  ( -0.000000000000000000, -0.000000000000000000, -1.000000000000000000 ) ) ;
#15 = APPLICATION_CONTEXT ( 'configuration controlled 3d designs of mechanical parts and assemblies' ) ;
#16 = UNCERTAINTY_MEASURE_WITH_UNIT (LENGTH_MEASURE( 1.000000000000000082E-05 ), #152, 'distance_accuracy_value', 'NONE');
#17 = APPROVAL_STATUS ( 'not_yet_approved' ) ;
#18 = EDGE_CURVE ( 'NONE', #36, #220, #190, .T. ) ;
#19 = DIRECTION ( 'NONE',  ( -1.000000000000000000, 0.000000000000000000, 0.000000000000000000 ) ) ;
#20 = DIRECTION ( 'NONE',  ( 0.000000000000000000, 0.000000000000000000, 1.000000000000000000 ) ) ;
#21 = CARTESIAN_POINT ( 'NONE',  ( 42.04999999999999716, 5.149639790414618817E-15, -15.25000000000000000 ) ) ;
#22 = AXIS2_PLACEMENT_3D ( 'NONE', #221, #147, #86 ) ;
#23 = PERSON_AND_ORGANIZATION_ROLE ( 'classification_officer' ) ;
#24 = COORDINATED_UNIVERSAL_TIME_OFFSET ( 10, 0, .AHEAD. ) ;
#25 = PRODUCT_DEFINITION_SHAPE ( 'NONE', 'NONE',  #167 ) ;
#26 = EDGE_CURVE ( 'NONE', #112, #220, #50, .T. ) ;
#27 = ORIENTED_EDGE ( 'NONE', *, *, #123, .T. ) ;
#28 = CARTESIAN_POINT ( 'NONE',  ( 36.29999999999998295, 4.445467880904890927E-15, 15.24999999999999645 ) ) ;
#29 = ORIENTED_EDGE ( 'NONE', *, *, #106, .T. ) ;
#30 = CC_DESIGN_PERSON_AND_ORGANIZATION_ASSIGNMENT ( #118, #23, ( #140 ) ) ;
#31 = CYLINDRICAL_SURFACE ( 'NONE', #185, 42.04999999999999716 ) ;
#32 = FACE_OUTER_BOUND ( 'NONE', #178, .T. ) ;
#33 = ORIENTED_EDGE ( 'NONE', *, *, #173, .T. ) ;
#34 = MANIFOLD_SOLID_BREP ( 'G2-1/2 Tapped Hole1', #198 ) ;
#35 = CARTESIAN_POINT ( 'NONE',  ( 0.000000000000000000, 0.000000000000000000, -15.25000000000000000 ) ) ;
#36 = VERTEX_POINT ( 'NONE', #239 ) ;
#37 = VECTOR ( 'NONE', #234, 1000.000000000000000 ) ;
#38 = APPROVAL_PERSON_ORGANIZATION ( #193, #136, #211 ) ;
#39 = EDGE_CURVE ( 'NONE', #240, #163, #81, .T. ) ;
#40 = DATE_AND_TIME ( #135, #224 ) ;
#41 = APPROVAL_STATUS ( 'not_yet_approved' ) ;
#42 = PERSON_AND_ORGANIZATION ( #78, #210 ) ;
#43 = COORDINATED_UNIVERSAL_TIME_OFFSET ( 10, 0, .AHEAD. ) ;
#44 = APPROVAL_DATE_TIME ( #229, #136 ) ;
#45 = CC_DESIGN_APPROVAL ( #83, ( #115 ) ) ;
#46 = ORIENTED_EDGE ( 'NONE', *, *, #173, .F. ) ;
#47 = DIRECTION ( 'NONE',  ( 0.000000000000000000, 0.000000000000000000, 1.000000000000000000 ) ) ;
#48 = ORIENTED_EDGE ( 'NONE', *, *, #236, .F. ) ;
#49 = CYLINDRICAL_SURFACE ( 'NONE', #22, 36.29999999999999005 ) ;
#50 = LINE ( 'NONE', #126, #97 ) ;
#51 = CARTESIAN_POINT ( 'NONE',  ( 0.000000000000000000, 0.000000000000000000, -15.25000000000000000 ) ) ;
#52 = DIRECTION ( 'NONE',  ( 1.000000000000000000, 0.000000000000000000, 0.000000000000000000 ) ) ;
#53 = ORIENTED_EDGE ( 'NONE', *, *, #63, .F. ) ;
#54 = FACE_OUTER_BOUND ( 'NONE', #110, .T. ) ;
#55 = EDGE_CURVE ( 'NONE', #112, #70, #101, .T. ) ;
#56 = AXIS2_PLACEMENT_3D ( 'NONE', #90, #71, #145 ) ;
#57 = PERSON_AND_ORGANIZATION ( #78, #210 ) ;
#58 = DIRECTION ( 'NONE',  ( -0.000000000000000000, -0.000000000000000000, -1.000000000000000000 ) ) ;
#59 = DATE_AND_TIME ( #117, #235 ) ;
#60 = CIRCLE ( 'NONE', #194, 36.29999999999999716 ) ;
#61 = CALENDAR_DATE ( 2025, 17, 8 ) ;
#62 = DATE_TIME_ROLE ( 'classification_date' ) ;
#63 = EDGE_CURVE ( 'NONE', #215, #10, #233, .T. ) ;
#64 = APPROVAL_STATUS ( 'not_yet_approved' ) ;
#65 = AXIS2_PLACEMENT_3D ( 'NONE', #241, #243, #52 ) ;
#66 =( GEOMETRIC_REPRESENTATION_CONTEXT ( 3 ) GLOBAL_UNCERTAINTY_ASSIGNED_CONTEXT ( ( #16 ) ) GLOBAL_UNIT_ASSIGNED_CONTEXT ( ( #152, #169, #134 ) ) REPRESENTATION_CONTEXT ( 'NONE', 'WORKASPACE' ) );
#67 = DIRECTION ( 'NONE',  ( 0.000000000000000000, 0.000000000000000000, 1.000000000000000000 ) ) ;
#68 = EDGE_LOOP ( 'NONE', ( #72, #74 ) ) ;
#69 = FACE_BOUND ( 'NONE', #222, .T. ) ;
#70 = VERTEX_POINT ( 'NONE', #73 ) ;
#71 = DIRECTION ( 'NONE',  ( -0.000000000000000000, -0.000000000000000000, -1.000000000000000000 ) ) ;
#72 = ORIENTED_EDGE ( 'NONE', *, *, #18, .F. ) ;
#73 = CARTESIAN_POINT ( 'NONE',  ( -36.29999999999998295, 0.000000000000000000, 15.24999999999999645 ) ) ;
#74 = ORIENTED_EDGE ( 'NONE', *, *, #151, .F. ) ;
#75 = ADVANCED_FACE ( 'NONE', ( #32 ), #31, .T. ) ;
#76 = LINE ( 'NONE', #225, #13 ) ;
#77 = APPROVAL_DATE_TIME ( #59, #206 ) ;
#78 = PERSON ( 'UNSPECIFIED', 'UNSPECIFIED', 'UNSPECIFIED', ('UNSPECIFIED'), ('UNSPECIFIED'), ('UNSPECIFIED') ) ;
#79 = DIRECTION ( 'NONE',  ( -0.000000000000000000, -0.000000000000000000, -1.000000000000000000 ) ) ;
#80 = CIRCLE ( 'NONE', #212, 42.04999999999999716 ) ;
#81 = CIRCLE ( 'NONE', #131, 42.04999999999999716 ) ;
#82 = CALENDAR_DATE ( 2025, 17, 8 ) ;
#83 = APPROVAL ( #41, 'UNSPECIFIED' ) ;
#84 = CARTESIAN_POINT ( 'NONE',  ( 0.000000000000000000, 0.000000000000000000, 15.25000000000000000 ) ) ;
#85 = APPROVAL_PERSON_ORGANIZATION ( #57, #206, #168 ) ;
#86 = DIRECTION ( 'NONE',  ( -1.000000000000000000, 0.000000000000000000, 0.000000000000000000 ) ) ;
#87 = ORIENTED_EDGE ( 'NONE', *, *, #18, .T. ) ;
#88 = PLANE ( 'NONE',  #227 ) ;
#89 = ORIENTED_EDGE ( 'NONE', *, *, #123, .F. ) ;
#90 = CARTESIAN_POINT ( 'NONE',  ( 0.000000000000000000, 0.000000000000000000, 15.25000000000000000 ) ) ;
#91 = ORIENTED_EDGE ( 'NONE', *, *, #63, .T. ) ;
#92 = AXIS2_PLACEMENT_3D ( 'NONE', #84, #217, #125 ) ;
#93 = CARTESIAN_POINT ( 'NONE',  ( 0.000000000000000000, 0.000000000000000000, 15.24999999999999645 ) ) ;
#94 = PERSON_AND_ORGANIZATION ( #78, #210 ) ;
#95 = CC_DESIGN_DATE_AND_TIME_ASSIGNMENT ( #231, #62, ( #140 ) ) ;
#96 = MECHANICAL_CONTEXT ( 'NONE', #232, 'mechanical' ) ;
#97 = VECTOR ( 'NONE', #196, 1000.000000000000000 ) ;
#98 = APPLICATION_PROTOCOL_DEFINITION ( 'international standard', 'config_control_design', 1994, #232 ) ;
#99 = COORDINATED_UNIVERSAL_TIME_OFFSET ( 10, 0, .AHEAD. ) ;
#100 = ADVANCED_BREP_SHAPE_REPRESENTATION ( 'OEM-SSP26H-065 _REV_', ( #34, #108 ), #66 ) ;
#101 = CIRCLE ( 'NONE', #248, 36.29999999999998295 ) ;
#102 = ADVANCED_FACE ( 'NONE', ( #177 ), #49, .F. ) ;
#103 = SECURITY_CLASSIFICATION_LEVEL ( 'unclassified' ) ;
#104 = CARTESIAN_POINT ( 'NONE',  ( 0.000000000000000000, 0.000000000000000000, -15.24999999999999822 ) ) ;
#105 = DIRECTION ( 'NONE',  ( 0.000000000000000000, 0.000000000000000000, 1.000000000000000000 ) ) ;
#106 = EDGE_CURVE ( 'NONE', #10, #215, #158, .T. ) ;
#107 = ORIENTED_EDGE ( 'NONE', *, *, #39, .T. ) ;
#108 = AXIS2_PLACEMENT_3D ( 'NONE', #226, #20, #223 ) ;
#109 = LINE ( 'NONE', #157, #37 ) ;
#110 = EDGE_LOOP ( 'NONE', ( #12, #46, #165, #87 ) ) ;
#111 = DIRECTION ( 'NONE',  ( 1.000000000000000000, 0.000000000000000000, 0.000000000000000000 ) ) ;
#112 = VERTEX_POINT ( 'NONE', #28 ) ;
#113 = DIRECTION ( 'NONE',  ( -1.000000000000000000, 0.000000000000000000, 0.000000000000000000 ) ) ;
#114 = CYLINDRICAL_SURFACE ( 'NONE', #191, 36.29999999999999005 ) ;
#115 = PRODUCT_DEFINITION_FORMATION_WITH_SPECIFIED_SOURCE ( 'ANY', '', #138, .NOT_KNOWN. ) ;
#116 = CARTESIAN_POINT ( 'NONE',  ( -42.04999999999999716, 0.000000000000000000, 15.25000000000000000 ) ) ;
#117 = CALENDAR_DATE ( 2025, 17, 8 ) ;
#118 = PERSON_AND_ORGANIZATION ( #78, #210 ) ;
#119 = APPROVAL_PERSON_ORGANIZATION ( #187, #83, #188 ) ;
#120 = DESIGN_CONTEXT ( 'detailed design', #15, 'design' ) ;
#121 = AXIS2_PLACEMENT_3D ( 'NONE', #127, #14, #237 ) ;
#122 = ORIENTED_EDGE ( 'NONE', *, *, #236, .T. ) ;
#123 = EDGE_CURVE ( 'NONE', #163, #240, #80, .T. ) ;
#124 = DIRECTION ( 'NONE',  ( 0.000000000000000000, 0.000000000000000000, 1.000000000000000000 ) ) ;
#125 = DIRECTION ( 'NONE',  ( 1.000000000000000000, 0.000000000000000000, -0.000000000000000000 ) ) ;
#126 = CARTESIAN_POINT ( 'NONE',  ( 36.29999999999999005, 4.445467880904890927E-15, -15.25000000000000000 ) ) ;
#127 = CARTESIAN_POINT ( 'NONE',  ( 0.000000000000000000, 0.000000000000000000, 15.24999999999999645 ) ) ;
#128 = DIRECTION ( 'NONE',  ( 1.000000000000000000, 0.000000000000000000, 0.000000000000000000 ) ) ;
#129 = CARTESIAN_POINT ( 'NONE',  ( 42.04999999999999716, 5.149639790414618817E-15, 15.25000000000000000 ) ) ;
#130 = CARTESIAN_POINT ( 'NONE',  ( 36.29999999999999716, 4.445467880904891716E-15, -15.24999999999999822 ) ) ;
#131 = AXIS2_PLACEMENT_3D ( 'NONE', #35, #105, #128 ) ;
#132 = CC_DESIGN_APPROVAL ( #136, ( #140 ) ) ;
#133 = PERSON_AND_ORGANIZATION_ROLE ( 'creator' ) ;
#134 =( NAMED_UNIT ( * ) SI_UNIT ( $, .STERADIAN. ) SOLID_ANGLE_UNIT ( ) );
#135 = CALENDAR_DATE ( 2025, 17, 8 ) ;
#136 = APPROVAL ( #64, 'UNSPECIFIED' ) ;
#137 = PERSON_AND_ORGANIZATION ( #78, #210 ) ;
#138 = PRODUCT ( 'OEM-SSP26H-065 _REV_', 'OEM-SSP26H-065 _REV_', '', ( #96 ) ) ;
#139 = AXIS2_PLACEMENT_3D ( 'NONE', #166, #47, #111 ) ;
#140 = SECURITY_CLASSIFICATION ( '', '', #103 ) ;
#141 = ADVANCED_FACE ( 'NONE', ( #184 ), #11, .T. ) ;
#142 = DIRECTION ( 'NONE',  ( 1.000000000000000000, 0.000000000000000000, 0.000000000000000000 ) ) ;
#143 = PLANE ( 'NONE',  #92 ) ;
#144 = EDGE_LOOP ( 'NONE', ( #91, #29 ) ) ;
#145 = DIRECTION ( 'NONE',  ( -1.000000000000000000, 0.000000000000000000, 0.000000000000000000 ) ) ;
#146 = ORIENTED_EDGE ( 'NONE', *, *, #192, .T. ) ;
#147 = DIRECTION ( 'NONE',  ( -0.000000000000000000, -0.000000000000000000, -1.000000000000000000 ) ) ;
#148 = ORIENTED_EDGE ( 'NONE', *, *, #106, .F. ) ;
#149 = CARTESIAN_POINT ( 'NONE',  ( -42.04999999999999716, 0.000000000000000000, 15.25000000000000000 ) ) ;
#150 = DIRECTION ( 'NONE',  ( -0.000000000000000000, -0.000000000000000000, -1.000000000000000000 ) ) ;
#151 = EDGE_CURVE ( 'NONE', #220, #36, #60, .T. ) ;
#152 =( LENGTH_UNIT ( ) NAMED_UNIT ( * ) SI_UNIT ( .MILLI., .METRE. ) );
#153 = APPLICATION_PROTOCOL_DEFINITION ( 'international standard', 'config_control_design', 1994, #15 ) ;
#154 = CIRCLE ( 'NONE', #121, 36.29999999999998295 ) ;
#155 = CC_DESIGN_DATE_AND_TIME_ASSIGNMENT ( #40, #207, ( #167 ) ) ;
#156 = PERSON_AND_ORGANIZATION_ROLE ( 'creator' ) ;
#157 = CARTESIAN_POINT ( 'NONE',  ( 42.04999999999999716, 5.149639790414618817E-15, 15.25000000000000000 ) ) ;
#158 = CIRCLE ( 'NONE', #139, 42.04999999999999716 ) ;
#159 = CARTESIAN_POINT ( 'NONE',  ( -42.04999999999999716, 0.000000000000000000, -15.25000000000000000 ) ) ;
#160 = CC_DESIGN_PERSON_AND_ORGANIZATION_ASSIGNMENT ( #42, #156, ( #115 ) ) ;
#161 = ORIENTED_EDGE ( 'NONE', *, *, #26, .T. ) ;
#162 = CARTESIAN_POINT ( 'NONE',  ( 0.000000000000000000, 0.000000000000000000, 15.25000000000000000 ) ) ;
#163 = VERTEX_POINT ( 'NONE', #159 ) ;
#164 = DIRECTION ( 'NONE',  ( -0.000000000000000000, -0.000000000000000000, -1.000000000000000000 ) ) ;
#165 = ORIENTED_EDGE ( 'NONE', *, *, #216, .T. ) ;
#166 = CARTESIAN_POINT ( 'NONE',  ( 0.000000000000000000, 0.000000000000000000, 15.25000000000000000 ) ) ;
#167 = PRODUCT_DEFINITION ( 'UNKNOWN', '', #115, #120 ) ;
#168 = APPROVAL_ROLE ( '' ) ;
#169 =( NAMED_UNIT ( * ) PLANE_ANGLE_UNIT ( ) SI_UNIT ( $, .RADIAN. ) );
#170 = PERSON_AND_ORGANIZATION_ROLE ( 'design_owner' ) ;
#171 = SHAPE_DEFINITION_REPRESENTATION ( #25, #100 ) ;
#172 = CC_DESIGN_SECURITY_CLASSIFICATION ( #140, ( #115 ) ) ;
#173 = EDGE_CURVE ( 'NONE', #70, #112, #154, .T. ) ;
#174 = APPROVAL_DATE_TIME ( #189, #83 ) ;
#175 = DIRECTION ( 'NONE',  ( -1.000000000000000000, 0.000000000000000000, 0.000000000000000000 ) ) ;
#176 = CC_DESIGN_PERSON_AND_ORGANIZATION_ASSIGNMENT ( #246, #133, ( #167 ) ) ;
#177 = FACE_OUTER_BOUND ( 'NONE', #181, .T. ) ;
#178 = EDGE_LOOP ( 'NONE', ( #238, #53, #122, #27 ) ) ;
#179 = LOCAL_TIME ( 13, 49, 44.00000000000000000, #24 ) ;
#180 = FACE_OUTER_BOUND ( 'NONE', #195, .T. ) ;
#181 = EDGE_LOOP ( 'NONE', ( #242, #161, #8, #4 ) ) ;
#182 = CARTESIAN_POINT ( 'NONE',  ( 0.000000000000000000, 0.000000000000000000, -15.25000000000000000 ) ) ;
#183 = ORIENTED_EDGE ( 'NONE', *, *, #39, .F. ) ;
#184 = FACE_OUTER_BOUND ( 'NONE', #202, .T. ) ;
#185 = AXIS2_PLACEMENT_3D ( 'NONE', #162, #164, #5 ) ;
#186 = ADVANCED_FACE ( 'NONE', ( #69, #2 ), #143, .T. ) ;
#187 = PERSON_AND_ORGANIZATION ( #78, #210 ) ;
#188 = APPROVAL_ROLE ( '' ) ;
#189 = DATE_AND_TIME ( #209, #7 ) ;
#190 = CIRCLE ( 'NONE', #6, 36.29999999999999716 ) ;
#191 = AXIS2_PLACEMENT_3D ( 'NONE', #247, #150, #19 ) ;
#192 = EDGE_CURVE ( 'NONE', #10, #240, #109, .T. ) ;
#193 = PERSON_AND_ORGANIZATION ( #78, #210 ) ;
#194 = AXIS2_PLACEMENT_3D ( 'NONE', #9, #201, #113 ) ;
#195 = EDGE_LOOP ( 'NONE', ( #89, #183 ) ) ;
#196 = DIRECTION ( 'NONE',  ( -0.000000000000000000, -0.000000000000000000, -1.000000000000000000 ) ) ;
#197 = FACE_BOUND ( 'NONE', #68, .T. ) ;
#198 = CLOSED_SHELL ( 'NONE', ( #102, #141, #75, #186, #208, #228 ) ) ;
#199 = DIRECTION ( 'NONE',  ( -1.000000000000000000, 0.000000000000000000, 0.000000000000000000 ) ) ;
#200 = ORIENTED_EDGE ( 'NONE', *, *, #55, .T. ) ;
#201 = DIRECTION ( 'NONE',  ( -0.000000000000000000, -0.000000000000000000, -1.000000000000000000 ) ) ;
#202 = EDGE_LOOP ( 'NONE', ( #148, #146, #107, #48 ) ) ;
#203 = LINE ( 'NONE', #149, #249 ) ;
#204 = LOCAL_TIME ( 13, 49, 44.00000000000000000, #99 ) ;
#205 = COORDINATED_UNIVERSAL_TIME_OFFSET ( 10, 0, .AHEAD. ) ;
#206 = APPROVAL ( #17, 'UNSPECIFIED' ) ;
#207 = DATE_TIME_ROLE ( 'creation_date' ) ;
#208 = ADVANCED_FACE ( 'NONE', ( #197, #180 ), #88, .F. ) ;
#209 = CALENDAR_DATE ( 2025, 17, 8 ) ;
#210 = ORGANIZATION ( 'UNSPECIFIED', 'UNSPECIFIED', '' ) ;
#211 = APPROVAL_ROLE ( '' ) ;
#212 = AXIS2_PLACEMENT_3D ( 'NONE', #182, #124, #142 ) ;
#213 = CC_DESIGN_APPROVAL ( #206, ( #167 ) ) ;
#214 = DIRECTION ( 'NONE',  ( -0.000000000000000000, -0.000000000000000000, -1.000000000000000000 ) ) ;
#215 = VERTEX_POINT ( 'NONE', #116 ) ;
#216 = EDGE_CURVE ( 'NONE', #70, #36, #76, .T. ) ;
#217 = DIRECTION ( 'NONE',  ( 0.000000000000000000, 0.000000000000000000, 1.000000000000000000 ) ) ;
#218 = DIRECTION ( 'NONE',  ( -0.000000000000000000, -0.000000000000000000, -1.000000000000000000 ) ) ;
#219 = DIRECTION ( 'NONE',  ( 1.000000000000000000, 0.000000000000000000, -0.000000000000000000 ) ) ;
#220 = VERTEX_POINT ( 'NONE', #130 ) ;
#221 = CARTESIAN_POINT ( 'NONE',  ( 0.000000000000000000, 0.000000000000000000, -15.25000000000000000 ) ) ;
#222 = EDGE_LOOP ( 'NONE', ( #33, #200 ) ) ;
#223 = DIRECTION ( 'NONE',  ( 1.000000000000000000, 0.000000000000000000, 0.000000000000000000 ) ) ;
#224 = LOCAL_TIME ( 13, 49, 44.00000000000000000, #205 ) ;
#225 = CARTESIAN_POINT ( 'NONE',  ( -36.29999999999999005, 0.000000000000000000, -15.25000000000000000 ) ) ;
#226 = CARTESIAN_POINT ( 'NONE',  ( 0.000000000000000000, 0.000000000000000000, 0.000000000000000000 ) ) ;
#227 = AXIS2_PLACEMENT_3D ( 'NONE', #51, #67, #219 ) ;
#228 = ADVANCED_FACE ( 'NONE', ( #54 ), #114, .F. ) ;
#229 = DATE_AND_TIME ( #61, #204 ) ;
#230 = CC_DESIGN_PERSON_AND_ORGANIZATION_ASSIGNMENT ( #137, #1, ( #115 ) ) ;
#231 = DATE_AND_TIME ( #82, #179 ) ;
#232 = APPLICATION_CONTEXT ( 'configuration controlled 3d designs of mechanical parts and assemblies' ) ;
#233 = CIRCLE ( 'NONE', #65, 42.04999999999999716 ) ;
#234 = DIRECTION ( 'NONE',  ( -0.000000000000000000, -0.000000000000000000, -1.000000000000000000 ) ) ;
#235 = LOCAL_TIME ( 13, 49, 44.00000000000000000, #245 ) ;
#236 = EDGE_CURVE ( 'NONE', #215, #163, #203, .T. ) ;
#237 = DIRECTION ( 'NONE',  ( -1.000000000000000000, 0.000000000000000000, 0.000000000000000000 ) ) ;
#238 = ORIENTED_EDGE ( 'NONE', *, *, #192, .F. ) ;
#239 = CARTESIAN_POINT ( 'NONE',  ( -36.29999999999999716, 0.000000000000000000, -15.24999999999999822 ) ) ;
#240 = VERTEX_POINT ( 'NONE', #21 ) ;
#241 = CARTESIAN_POINT ( 'NONE',  ( 0.000000000000000000, 0.000000000000000000, 15.25000000000000000 ) ) ;
#242 = ORIENTED_EDGE ( 'NONE', *, *, #55, .F. ) ;
#243 = DIRECTION ( 'NONE',  ( 0.000000000000000000, 0.000000000000000000, 1.000000000000000000 ) ) ;
#244 = PRODUCT_RELATED_PRODUCT_CATEGORY ( 'detail', '', ( #138 ) ) ;
#245 = COORDINATED_UNIVERSAL_TIME_OFFSET ( 10, 0, .AHEAD. ) ;
#246 = PERSON_AND_ORGANIZATION ( #78, #210 ) ;
#247 = CARTESIAN_POINT ( 'NONE',  ( 0.000000000000000000, 0.000000000000000000, -15.25000000000000000 ) ) ;
#248 = AXIS2_PLACEMENT_3D ( 'NONE', #93, #214, #199 ) ;
#249 = VECTOR ( 'NONE', #79, 1000.000000000000000 ) ;
ENDSEC;
END-ISO-10303-21;
