ISO-10303-21;
HEADER;
FILE_DESCRIPTION (( 'STEP AP203' ),
    '1' );
FILE_NAME ('PART15^CELL V02 CAP_REV_.step',
    '2025-08-17T03:58:05',
    ( '' ),
    ( '' ),
    'SwSTEP 2.0',
    'SolidWorks 2024',
    '' );
FILE_SCHEMA (( 'CONFIG_CONTROL_DESIGN' ));
ENDSEC;

DATA;
#1 = EDGE_CURVE ( 'NONE', #118, #160, #178, .T. ) ;
#2 = APPLICATION_CONTEXT ( 'configuration controlled 3d designs of mechanical parts and assemblies' ) ;
#3 = AXIS2_PLACEMENT_3D ( 'NONE', #137, #45, #44 ) ;
#4 = EDGE_CURVE ( 'NONE', #62, #198, #166, .T. ) ;
#5 = DIRECTION ( 'NONE',  ( 0.000000000000000000, 0.000000000000000000, -1.000000000000000000 ) ) ;
#6 = ORIENTED_EDGE ( 'NONE', *, *, #116, .F. ) ;
#7 = DIRECTION ( 'NONE',  ( -0.000000000000000000, -0.000000000000000000, -1.000000000000000000 ) ) ;
#8 = PRODUCT_RELATED_PRODUCT_CATEGORY ( 'detail', '', ( #142 ) ) ;
#9 = EDGE_LOOP ( 'NONE', ( #180, #104, #82, #64 ) ) ;
#10 = CARTESIAN_POINT ( 'NONE',  ( -1150.000000000000000, -534.6205889570057934, 1.000000000000000000 ) ) ;
#11 = PLANE ( 'NONE',  #22 ) ;
#12 = LINE ( 'NONE', #95, #226 ) ;
#13 = LINE ( 'NONE', #134, #83 ) ;
#14 = DATE_AND_TIME ( #193, #53 ) ;
#15 = ADVANCED_FACE ( 'NONE', ( #50 ), #11, .F. ) ;
#16 = DATE_AND_TIME ( #77, #172 ) ;
#17 = VECTOR ( 'NONE', #65, 1000.000000000000000 ) ;
#18 = LINE ( 'NONE', #35, #133 ) ;
#19 = SHAPE_DEFINITION_REPRESENTATION ( #147, #60 ) ;
#20 = ADVANCED_FACE ( 'NONE', ( #123 ), #47, .F. ) ;
#21 = CALENDAR_DATE ( 2025, 17, 8 ) ;
#22 = AXIS2_PLACEMENT_3D ( 'NONE', #229, #89, #200 ) ;
#23 = AXIS2_PLACEMENT_3D ( 'NONE', #210, #174, #155 ) ;
#24 = CARTESIAN_POINT ( 'NONE',  ( 0.000000000000000000, 0.000000000000000000, 1.000000000000000000 ) ) ;
#25 = EDGE_LOOP ( 'NONE', ( #102, #218, #27, #141 ) ) ;
#26 = APPROVAL_PERSON_ORGANIZATION ( #191, #55, #156 ) ;
#27 = ORIENTED_EDGE ( 'NONE', *, *, #176, .F. ) ;
#28 = PERSON ( 'UNSPECIFIED', 'UNSPECIFIED', 'UNSPECIFIED', ('UNSPECIFIED'), ('UNSPECIFIED'), ('UNSPECIFIED') ) ;
#29 = ORIENTED_EDGE ( 'NONE', *, *, #211, .T. ) ;
#30 = ORIENTED_EDGE ( 'NONE', *, *, #220, .F. ) ;
#31 = DIRECTION ( 'NONE',  ( -1.000000000000000000, 0.000000000000000000, 0.000000000000000000 ) ) ;
#32 = APPLICATION_CONTEXT ( 'configuration controlled 3d designs of mechanical parts and assemblies' ) ;
#33 = DIRECTION ( 'NONE',  ( -2.220446049250308742E-15, 1.000000000000000000, 0.000000000000000000 ) ) ;
#34 = APPROVAL_DATE_TIME ( #16, #40 ) ;
#35 = CARTESIAN_POINT ( 'NONE',  ( -1150.000000000000000, -634.6205889570057934, 0.000000000000000000 ) ) ;
#36 = DIRECTION ( 'NONE',  ( -0.000000000000000000, -1.000000000000000000, -0.000000000000000000 ) ) ;
#37 = APPLICATION_PROTOCOL_DEFINITION ( 'international standard', 'config_control_design', 1994, #2 ) ;
#38 = PERSON_AND_ORGANIZATION ( #28, #120 ) ;
#39 = CLOSED_SHELL ( 'NONE', ( #78, #70, #15, #20, #113, #185 ) ) ;
#40 = APPROVAL ( #169, 'UNSPECIFIED' ) ;
#41 = DESIGN_CONTEXT ( 'detailed design', #32, 'design' ) ;
#42 = CC_DESIGN_DATE_AND_TIME_ASSIGNMENT ( #132, #175, ( #87 ) ) ;
#43 = EDGE_CURVE ( 'NONE', #160, #167, #81, .T. ) ;
#44 = DIRECTION ( 'NONE',  ( 0.000000000000000000, 0.000000000000000000, 1.000000000000000000 ) ) ;
#45 = DIRECTION ( 'NONE',  ( 0.000000000000000000, 1.000000000000000000, -0.000000000000000000 ) ) ;
#46 = ORIENTED_EDGE ( 'NONE', *, *, #159, .F. ) ;
#47 = PLANE ( 'NONE',  #158 ) ;
#48 = DIRECTION ( 'NONE',  ( -1.000000000000000000, -2.220446049250308742E-15, 0.000000000000000000 ) ) ;
#49 = VERTEX_POINT ( 'NONE', #119 ) ;
#50 = FACE_OUTER_BOUND ( 'NONE', #144, .T. ) ;
#51 = CARTESIAN_POINT ( 'NONE',  ( -1150.000000000000000, -534.6205889570057934, 0.000000000000000000 ) ) ;
#52 = PERSON_AND_ORGANIZATION_ROLE ( 'design_supplier' ) ;
#53 = LOCAL_TIME ( 13, 58, 5.000000000000000000, #93 ) ;
#54 = PERSON_AND_ORGANIZATION ( #28, #120 ) ;
#55 = APPROVAL ( #96, 'UNSPECIFIED' ) ;
#56 = PERSON_AND_ORGANIZATION_ROLE ( 'creator' ) ;
#57 = LINE ( 'NONE', #232, #196 ) ;
#58 = PERSON_AND_ORGANIZATION ( #28, #120 ) ;
#59 = VECTOR ( 'NONE', #208, 1000.000000000000000 ) ;
#60 = ADVANCED_BREP_SHAPE_REPRESENTATION ( 'PART15^CELL V02 CAP_REV_', ( #162, #23 ), #126 ) ;
#61 = APPROVAL_PERSON_ORGANIZATION ( #205, #79, #112 ) ;
#62 = VERTEX_POINT ( 'NONE', #10 ) ;
#63 = VECTOR ( 'NONE', #192, 1000.000000000000000 ) ;
#64 = ORIENTED_EDGE ( 'NONE', *, *, #68, .T. ) ;
#65 = DIRECTION ( 'NONE',  ( -2.220446049250308742E-15, 1.000000000000000000, 0.000000000000000000 ) ) ;
#66 = EDGE_LOOP ( 'NONE', ( #105, #145, #181, #230 ) ) ;
#67 = ORIENTED_EDGE ( 'NONE', *, *, #177, .T. ) ;
#68 = EDGE_CURVE ( 'NONE', #118, #86, #143, .T. ) ;
#69 = PERSON_AND_ORGANIZATION_ROLE ( 'design_owner' ) ;
#70 = ADVANCED_FACE ( 'NONE', ( #216 ), #227, .F. ) ;
#71 = CARTESIAN_POINT ( 'NONE',  ( -1150.000000000000000, -634.6205889570057934, 0.000000000000000000 ) ) ;
#72 =( LENGTH_UNIT ( ) NAMED_UNIT ( * ) SI_UNIT ( .MILLI., .METRE. ) );
#73 = SECURITY_CLASSIFICATION ( '', '', #125 ) ;
#74 = CARTESIAN_POINT ( 'NONE',  ( 1149.999999999999545, -534.6205889570053387, 1.000000000000000000 ) ) ;
#75 = PERSON_AND_ORGANIZATION_ROLE ( 'classification_officer' ) ;
#76 = LINE ( 'NONE', #128, #224 ) ;
#77 = CALENDAR_DATE ( 2025, 17, 8 ) ;
#78 = ADVANCED_FACE ( 'NONE', ( #214 ), #202, .F. ) ;
#79 = APPROVAL ( #135, 'UNSPECIFIED' ) ;
#80 = VECTOR ( 'NONE', #213, 1000.000000000000000 ) ;
#81 = LINE ( 'NONE', #85, #217 ) ;
#82 = ORIENTED_EDGE ( 'NONE', *, *, #1, .F. ) ;
#83 = VECTOR ( 'NONE', #223, 1000.000000000000000 ) ;
#84 = LOCAL_TIME ( 13, 58, 5.000000000000000000, #209 ) ;
#85 = CARTESIAN_POINT ( 'NONE',  ( 1149.999999999999545, -534.6205889570053387, 1.000000000000000000 ) ) ;
#86 = VERTEX_POINT ( 'NONE', #115 ) ;
#87 = PRODUCT_DEFINITION ( 'UNKNOWN', '', #163, #41 ) ;
#88 = CC_DESIGN_PERSON_AND_ORGANIZATION_ASSIGNMENT ( #38, #56, ( #163 ) ) ;
#89 = DIRECTION ( 'NONE',  ( 9.654113257610059070E-17, -1.000000000000000000, 0.000000000000000000 ) ) ;
#90 = AXIS2_PLACEMENT_3D ( 'NONE', #24, #101, #179 ) ;
#91 = PERSON_AND_ORGANIZATION ( #28, #120 ) ;
#92 = LINE ( 'NONE', #190, #139 ) ;
#93 = COORDINATED_UNIVERSAL_TIME_OFFSET ( 10, 0, .AHEAD. ) ;
#94 = CARTESIAN_POINT ( 'NONE',  ( 1149.999999999999773, -634.6205889570055660, 1.000000000000000000 ) ) ;
#95 = CARTESIAN_POINT ( 'NONE',  ( -1150.000000000000000, -634.6205889570057934, 1.000000000000000000 ) ) ;
#96 = APPROVAL_STATUS ( 'not_yet_approved' ) ;
#97 = CARTESIAN_POINT ( 'NONE',  ( 0.000000000000000000, -634.6205889570055660, 1.000000000000000000 ) ) ;
#98 = PERSON_AND_ORGANIZATION ( #28, #120 ) ;
#99 = AXIS2_PLACEMENT_3D ( 'NONE', #108, #187, #31 ) ;
#100 = DIRECTION ( 'NONE',  ( -0.000000000000000000, -0.000000000000000000, -1.000000000000000000 ) ) ;
#101 = DIRECTION ( 'NONE',  ( 0.000000000000000000, 0.000000000000000000, -1.000000000000000000 ) ) ;
#102 = ORIENTED_EDGE ( 'NONE', *, *, #116, .T. ) ;
#103 = CARTESIAN_POINT ( 'NONE',  ( 1149.999999999999773, -634.6205889570055660, 1.000000000000000000 ) ) ;
#104 = ORIENTED_EDGE ( 'NONE', *, *, #43, .F. ) ;
#105 = ORIENTED_EDGE ( 'NONE', *, *, #220, .T. ) ;
#106 = APPLICATION_PROTOCOL_DEFINITION ( 'international standard', 'config_control_design', 1994, #32 ) ;
#107 = AXIS2_PLACEMENT_3D ( 'NONE', #140, #48, #121 ) ;
#108 = CARTESIAN_POINT ( 'NONE',  ( 0.000000000000000000, 0.000000000000000000, 0.000000000000000000 ) ) ;
#109 = APPROVAL_DATE_TIME ( #14, #79 ) ;
#110 = PLANE ( 'NONE',  #99 ) ;
#111 = DIRECTION ( 'NONE',  ( 1.000000000000000000, -0.000000000000000000, -0.000000000000000000 ) ) ;
#112 = APPROVAL_ROLE ( '' ) ;
#113 = ADVANCED_FACE ( 'NONE', ( #117 ), #197, .F. ) ;
#114 = CC_DESIGN_APPROVAL ( #79, ( #73 ) ) ;
#115 = CARTESIAN_POINT ( 'NONE',  ( 1149.999999999999773, -634.6205889570055660, 0.000000000000000000 ) ) ;
#116 = EDGE_CURVE ( 'NONE', #198, #203, #18, .T. ) ;
#117 = FACE_OUTER_BOUND ( 'NONE', #228, .T. ) ;
#118 = VERTEX_POINT ( 'NONE', #94 ) ;
#119 = CARTESIAN_POINT ( 'NONE',  ( -1150.000000000000000, -634.6205889570057934, 1.000000000000000000 ) ) ;
#120 = ORGANIZATION ( 'UNSPECIFIED', 'UNSPECIFIED', '' ) ;
#121 = DIRECTION ( 'NONE',  ( 2.220446049250308742E-15, -1.000000000000000000, 0.000000000000000000 ) ) ;
#122 = ORIENTED_EDGE ( 'NONE', *, *, #211, .F. ) ;
#123 = FACE_OUTER_BOUND ( 'NONE', #25, .T. ) ;
#124 = COORDINATED_UNIVERSAL_TIME_OFFSET ( 10, 0, .AHEAD. ) ;
#125 = SECURITY_CLASSIFICATION_LEVEL ( 'unclassified' ) ;
#126 =( GEOMETRIC_REPRESENTATION_CONTEXT ( 3 ) GLOBAL_UNCERTAINTY_ASSIGNED_CONTEXT ( ( #194 ) ) GLOBAL_UNIT_ASSIGNED_CONTEXT ( ( #72, #222, #148 ) ) REPRESENTATION_CONTEXT ( 'NONE', 'WORKASPACE' ) );
#127 = APPROVAL_PERSON_ORGANIZATION ( #91, #40, #221 ) ;
#128 = CARTESIAN_POINT ( 'NONE',  ( -1150.000000000000000, -634.6205889570057934, 1.000000000000000000 ) ) ;
#129 = COORDINATED_UNIVERSAL_TIME_OFFSET ( 10, 0, .AHEAD. ) ;
#130 = CC_DESIGN_PERSON_AND_ORGANIZATION_ASSIGNMENT ( #58, #69, ( #142 ) ) ;
#131 = CC_DESIGN_PERSON_AND_ORGANIZATION_ASSIGNMENT ( #54, #75, ( #73 ) ) ;
#132 = DATE_AND_TIME ( #207, #212 ) ;
#133 = VECTOR ( 'NONE', #170, 1000.000000000000000 ) ;
#134 = CARTESIAN_POINT ( 'NONE',  ( 1149.999999999999545, -534.6205889570053387, 1.000000000000000000 ) ) ;
#135 = APPROVAL_STATUS ( 'not_yet_approved' ) ;
#136 = CC_DESIGN_APPROVAL ( #40, ( #87 ) ) ;
#137 = CARTESIAN_POINT ( 'NONE',  ( 1149.999999999999773, -634.6205889570055660, 1.000000000000000000 ) ) ;
#138 = EDGE_CURVE ( 'NONE', #49, #203, #76, .T. ) ;
#139 = VECTOR ( 'NONE', #33, 1000.000000000000000 ) ;
#140 = CARTESIAN_POINT ( 'NONE',  ( 1149.999999999999773, -634.6205889570055660, 1.000000000000000000 ) ) ;
#141 = ORIENTED_EDGE ( 'NONE', *, *, #4, .T. ) ;
#142 = PRODUCT ( 'PART15^CELL V02 CAP_REV_', 'PART15^CELL V02 CAP_REV_', '', ( #231 ) ) ;
#143 = LINE ( 'NONE', #225, #80 ) ;
#144 = EDGE_LOOP ( 'NONE', ( #183, #165, #122, #161 ) ) ;
#145 = ORIENTED_EDGE ( 'NONE', *, *, #68, .F. ) ;
#146 = CARTESIAN_POINT ( 'NONE',  ( -1.234566996428349068E-13, -534.6205889570056797, 0.000000000000000000 ) ) ;
#147 = PRODUCT_DEFINITION_SHAPE ( 'NONE', 'NONE',  #87 ) ;
#148 =( NAMED_UNIT ( * ) SI_UNIT ( $, .STERADIAN. ) SOLID_ANGLE_UNIT ( ) );
#149 = DATE_TIME_ROLE ( 'classification_date' ) ;
#150 = PERSON_AND_ORGANIZATION_ROLE ( 'creator' ) ;
#151 = CC_DESIGN_PERSON_AND_ORGANIZATION_ASSIGNMENT ( #157, #52, ( #163 ) ) ;
#152 = EDGE_CURVE ( 'NONE', #167, #198, #206, .T. ) ;
#153 = CARTESIAN_POINT ( 'NONE',  ( 1149.999999999999545, -534.6205889570053387, 0.000000000000000000 ) ) ;
#154 = DATE_AND_TIME ( #189, #84 ) ;
#155 = DIRECTION ( 'NONE',  ( 1.000000000000000000, 0.000000000000000000, 0.000000000000000000 ) ) ;
#156 = APPROVAL_ROLE ( '' ) ;
#157 = PERSON_AND_ORGANIZATION ( #28, #120 ) ;
#158 = AXIS2_PLACEMENT_3D ( 'NONE', #204, #215, #5 ) ;
#159 = EDGE_CURVE ( 'NONE', #86, #167, #92, .T. ) ;
#160 = VERTEX_POINT ( 'NONE', #74 ) ;
#161 = ORIENTED_EDGE ( 'NONE', *, *, #43, .T. ) ;
#162 = MANIFOLD_SOLID_BREP ( 'Boss-Extrude1', #39 ) ;
#163 = PRODUCT_DEFINITION_FORMATION_WITH_SPECIFIED_SOURCE ( 'ANY', '', #142, .NOT_KNOWN. ) ;
#164 = ORIENTED_EDGE ( 'NONE', *, *, #1, .T. ) ;
#165 = ORIENTED_EDGE ( 'NONE', *, *, #4, .F. ) ;
#166 = LINE ( 'NONE', #182, #168 ) ;
#167 = VERTEX_POINT ( 'NONE', #153 ) ;
#168 = VECTOR ( 'NONE', #7, 1000.000000000000000 ) ;
#169 = APPROVAL_STATUS ( 'not_yet_approved' ) ;
#170 = DIRECTION ( 'NONE',  ( -0.000000000000000000, -1.000000000000000000, -0.000000000000000000 ) ) ;
#171 = DIRECTION ( 'NONE',  ( -0.000000000000000000, -0.000000000000000000, -1.000000000000000000 ) ) ;
#172 = LOCAL_TIME ( 13, 58, 5.000000000000000000, #124 ) ;
#173 = COORDINATED_UNIVERSAL_TIME_OFFSET ( 10, 0, .AHEAD. ) ;
#174 = DIRECTION ( 'NONE',  ( 0.000000000000000000, 0.000000000000000000, 1.000000000000000000 ) ) ;
#175 = DATE_TIME_ROLE ( 'creation_date' ) ;
#176 = EDGE_CURVE ( 'NONE', #62, #49, #12, .T. ) ;
#177 = EDGE_CURVE ( 'NONE', #49, #118, #186, .T. ) ;
#178 = LINE ( 'NONE', #103, #17 ) ;
#179 = DIRECTION ( 'NONE',  ( -1.000000000000000000, 0.000000000000000000, 0.000000000000000000 ) ) ;
#180 = ORIENTED_EDGE ( 'NONE', *, *, #159, .T. ) ;
#181 = ORIENTED_EDGE ( 'NONE', *, *, #177, .F. ) ;
#182 = CARTESIAN_POINT ( 'NONE',  ( -1150.000000000000000, -534.6205889570057934, 1.000000000000000000 ) ) ;
#183 = ORIENTED_EDGE ( 'NONE', *, *, #152, .T. ) ;
#184 = ORIENTED_EDGE ( 'NONE', *, *, #152, .F. ) ;
#185 = ADVANCED_FACE ( 'NONE', ( #233 ), #110, .T. ) ;
#186 = LINE ( 'NONE', #97, #59 ) ;
#187 = DIRECTION ( 'NONE',  ( 0.000000000000000000, 0.000000000000000000, -1.000000000000000000 ) ) ;
#188 = APPROVAL_DATE_TIME ( #235, #55 ) ;
#189 = CALENDAR_DATE ( 2025, 17, 8 ) ;
#190 = CARTESIAN_POINT ( 'NONE',  ( 1149.999999999999773, -634.6205889570055660, 0.000000000000000000 ) ) ;
#191 = PERSON_AND_ORGANIZATION ( #28, #120 ) ;
#192 = DIRECTION ( 'NONE',  ( -1.000000000000000000, -9.654113257610059070E-17, 0.000000000000000000 ) ) ;
#193 = CALENDAR_DATE ( 2025, 17, 8 ) ;
#194 = UNCERTAINTY_MEASURE_WITH_UNIT (LENGTH_MEASURE( 1.000000000000000082E-05 ), #72, 'distance_accuracy_value', 'NONE');
#195 = LOCAL_TIME ( 13, 58, 5.000000000000000000, #173 ) ;
#196 = VECTOR ( 'NONE', #111, 1000.000000000000000 ) ;
#197 = PLANE ( 'NONE',  #90 ) ;
#198 = VERTEX_POINT ( 'NONE', #51 ) ;
#199 = ORIENTED_EDGE ( 'NONE', *, *, #176, .T. ) ;
#200 = DIRECTION ( 'NONE',  ( 1.000000000000000000, 9.654113257610059070E-17, 0.000000000000000000 ) ) ;
#201 = CC_DESIGN_SECURITY_CLASSIFICATION ( #73, ( #163 ) ) ;
#202 = PLANE ( 'NONE',  #3 ) ;
#203 = VERTEX_POINT ( 'NONE', #71 ) ;
#204 = CARTESIAN_POINT ( 'NONE',  ( -1150.000000000000000, -634.6205889570057934, 1.000000000000000000 ) ) ;
#205 = PERSON_AND_ORGANIZATION ( #28, #120 ) ;
#206 = LINE ( 'NONE', #146, #63 ) ;
#207 = CALENDAR_DATE ( 2025, 17, 8 ) ;
#208 = DIRECTION ( 'NONE',  ( 1.000000000000000000, 1.930822651522011568E-16, -0.000000000000000000 ) ) ;
#209 = COORDINATED_UNIVERSAL_TIME_OFFSET ( 10, 0, .AHEAD. ) ;
#210 = CARTESIAN_POINT ( 'NONE',  ( 0.000000000000000000, 0.000000000000000000, 0.000000000000000000 ) ) ;
#211 = EDGE_CURVE ( 'NONE', #160, #62, #13, .T. ) ;
#212 = LOCAL_TIME ( 13, 58, 5.000000000000000000, #129 ) ;
#213 = DIRECTION ( 'NONE',  ( -0.000000000000000000, -0.000000000000000000, -1.000000000000000000 ) ) ;
#214 = FACE_OUTER_BOUND ( 'NONE', #66, .T. ) ;
#215 = DIRECTION ( 'NONE',  ( 1.000000000000000000, 0.000000000000000000, 0.000000000000000000 ) ) ;
#216 = FACE_OUTER_BOUND ( 'NONE', #9, .T. ) ;
#217 = VECTOR ( 'NONE', #100, 1000.000000000000000 ) ;
#218 = ORIENTED_EDGE ( 'NONE', *, *, #138, .F. ) ;
#219 = EDGE_LOOP ( 'NONE', ( #30, #6, #184, #46 ) ) ;
#220 = EDGE_CURVE ( 'NONE', #203, #86, #57, .T. ) ;
#221 = APPROVAL_ROLE ( '' ) ;
#222 =( NAMED_UNIT ( * ) PLANE_ANGLE_UNIT ( ) SI_UNIT ( $, .RADIAN. ) );
#223 = DIRECTION ( 'NONE',  ( -1.000000000000000000, -2.896233977283017598E-16, 0.000000000000000000 ) ) ;
#224 = VECTOR ( 'NONE', #171, 1000.000000000000000 ) ;
#225 = CARTESIAN_POINT ( 'NONE',  ( 1149.999999999999773, -634.6205889570055660, 1.000000000000000000 ) ) ;
#226 = VECTOR ( 'NONE', #36, 1000.000000000000000 ) ;
#227 = PLANE ( 'NONE',  #107 ) ;
#228 = EDGE_LOOP ( 'NONE', ( #67, #164, #29, #199 ) ) ;
#229 = CARTESIAN_POINT ( 'NONE',  ( -1.234566996428349068E-13, -534.6205889570056797, 1.000000000000000000 ) ) ;
#230 = ORIENTED_EDGE ( 'NONE', *, *, #138, .T. ) ;
#231 = MECHANICAL_CONTEXT ( 'NONE', #2, 'mechanical' ) ;
#232 = CARTESIAN_POINT ( 'NONE',  ( 1149.999999999999773, -634.6205889570055660, 0.000000000000000000 ) ) ;
#233 = FACE_OUTER_BOUND ( 'NONE', #219, .T. ) ;
#234 = CC_DESIGN_APPROVAL ( #55, ( #163 ) ) ;
#235 = DATE_AND_TIME ( #21, #195 ) ;
#236 = CC_DESIGN_PERSON_AND_ORGANIZATION_ASSIGNMENT ( #98, #150, ( #87 ) ) ;
#237 = CC_DESIGN_DATE_AND_TIME_ASSIGNMENT ( #154, #149, ( #73 ) ) ;
ENDSEC;
END-ISO-10303-21;
