ISO-10303-21;
HEADER;
FILE_DESCRIPTION (( 'STEP AP203' ),
    '1' );
FILE_NAME ('PART6^EYE TO EYE 5 LEAF 60MM SUSPENSION_REV_.step',
    '2025-08-17T04:50:53',
    ( '' ),
    ( '' ),
    'SwSTEP 2.0',
    'SolidWorks 2024',
    '' );
FILE_SCHEMA (( 'CONFIG_CONTROL_DESIGN' ));
ENDSEC;

DATA;
#1 = LINE ( 'NONE', #262, #175 ) ;
#2 = APPROVAL_PERSON_ORGANIZATION ( #7, #51, #31 ) ;
#3 = EDGE_CURVE ( 'NONE', #56, #270, #155, .T. ) ;
#4 =( NAMED_UNIT ( * ) PLANE_ANGLE_UNIT ( ) SI_UNIT ( $, .RADIAN. ) );
#5 = CARTESIAN_POINT ( 'NONE',  ( 20.00000000000000355, -7.599999999999999645, -25.00000000000000355 ) ) ;
#6 = AXIS2_PLACEMENT_3D ( 'NONE', #296, #250, #105 ) ;
#7 = PERSON_AND_ORGANIZATION ( #23, #264 ) ;
#8 = EDGE_LOOP ( 'NONE', ( #223, #246, #251, #177 ) ) ;
#9 = SECURITY_CLASSIFICATION_LEVEL ( 'unclassified' ) ;
#10 = ORIENTED_EDGE ( 'NONE', *, *, #217, .T. ) ;
#11 = EDGE_LOOP ( 'NONE', ( #110, #291, #84, #151 ) ) ;
#12 = AXIS2_PLACEMENT_3D ( 'NONE', #71, #146, #26 ) ;
#13 = EDGE_CURVE ( 'NONE', #87, #62, #147, .T. ) ;
#14 = APPROVAL_PERSON_ORGANIZATION ( #168, #126, #49 ) ;
#15 = VERTEX_POINT ( 'NONE', #85 ) ;
#16 = CC_DESIGN_PERSON_AND_ORGANIZATION_ASSIGNMENT ( #201, #244, ( #132 ) ) ;
#17 = DIRECTION ( 'NONE',  ( -1.000000000000000000, 0.000000000000000000, 1.734723475976807094E-16 ) ) ;
#18 = CYLINDRICAL_SURFACE ( 'NONE', #43, 9.250000000000000000 ) ;
#19 = VECTOR ( 'NONE', #17, 1000.000000000000000 ) ;
#20 = DIRECTION ( 'NONE',  ( 0.000000000000000000, -0.000000000000000000, 1.000000000000000000 ) ) ;
#21 = CC_DESIGN_DATE_AND_TIME_ASSIGNMENT ( #273, #181, ( #230 ) ) ;
#22 = FACE_BOUND ( 'NONE', #297, .T. ) ;
#23 = PERSON ( 'UNSPECIFIED', 'UNSPECIFIED', 'UNSPECIFIED', ('UNSPECIFIED'), ('UNSPECIFIED'), ('UNSPECIFIED') ) ;
#24 = CARTESIAN_POINT ( 'NONE',  ( 20.00000000000000355, -7.599999999999999645, -25.00000000000000355 ) ) ;
#25 = PERSON_AND_ORGANIZATION ( #23, #264 ) ;
#26 = DIRECTION ( 'NONE',  ( 0.000000000000000000, 0.000000000000000000, 1.000000000000000000 ) ) ;
#27 = APPLICATION_PROTOCOL_DEFINITION ( 'international standard', 'config_control_design', 1994, #278 ) ;
#28 = ORIENTED_EDGE ( 'NONE', *, *, #68, .F. ) ;
#29 = DIRECTION ( 'NONE',  ( 0.000000000000000000, 0.000000000000000000, -1.000000000000000000 ) ) ;
#30 = ORIENTED_EDGE ( 'NONE', *, *, #73, .T. ) ;
#31 = APPROVAL_ROLE ( '' ) ;
#32 = SHAPE_DEFINITION_REPRESENTATION ( #259, #70 ) ;
#33 = ORIENTED_EDGE ( 'NONE', *, *, #140, .T. ) ;
#34 = ORIENTED_EDGE ( 'NONE', *, *, #204, .T. ) ;
#35 = DIRECTION ( 'NONE',  ( 0.000000000000000000, 1.000000000000000000, 0.000000000000000000 ) ) ;
#36 = COORDINATED_UNIVERSAL_TIME_OFFSET ( 10, 0, .AHEAD. ) ;
#37 = LINE ( 'NONE', #249, #125 ) ;
#38 = CC_DESIGN_APPROVAL ( #126, ( #148 ) ) ;
#39 = AXIS2_PLACEMENT_3D ( 'NONE', #237, #74, #100 ) ;
#40 = CARTESIAN_POINT ( 'NONE',  ( 20.00000000000000355, 0.000000000000000000, -25.00000000000000355 ) ) ;
#41 = DIRECTION ( 'NONE',  ( 0.000000000000000000, 1.000000000000000000, 0.000000000000000000 ) ) ;
#42 = FACE_OUTER_BOUND ( 'NONE', #88, .T. ) ;
#43 = AXIS2_PLACEMENT_3D ( 'NONE', #94, #45, #114 ) ;
#44 = CC_DESIGN_APPROVAL ( #51, ( #230 ) ) ;
#45 = DIRECTION ( 'NONE',  ( 0.000000000000000000, 1.000000000000000000, 0.000000000000000000 ) ) ;
#46 = CARTESIAN_POINT ( 'NONE',  ( 20.00000000000000355, -7.599999999999999645, 24.99999999999999645 ) ) ;
#47 = EDGE_CURVE ( 'NONE', #274, #241, #37, .T. ) ;
#48 = FACE_OUTER_BOUND ( 'NONE', #275, .T. ) ;
#49 = APPROVAL_ROLE ( '' ) ;
#50 = AXIS2_PLACEMENT_3D ( 'NONE', #233, #161, #20 ) ;
#51 = APPROVAL ( #268, 'UNSPECIFIED' ) ;
#52 = LINE ( 'NONE', #238, #215 ) ;
#53 = VECTOR ( 'NONE', #138, 1000.000000000000000 ) ;
#54 = APPROVAL_DATE_TIME ( #178, #51 ) ;
#55 = APPROVAL ( #83, 'UNSPECIFIED' ) ;
#56 = VERTEX_POINT ( 'NONE', #272 ) ;
#57 = CALENDAR_DATE ( 2025, 17, 8 ) ;
#58 = ORIENTED_EDGE ( 'NONE', *, *, #185, .T. ) ;
#59 = VECTOR ( 'NONE', #95, 1000.000000000000000 ) ;
#60 = PERSON_AND_ORGANIZATION ( #23, #264 ) ;
#61 = ORIENTED_EDGE ( 'NONE', *, *, #13, .F. ) ;
#62 = VERTEX_POINT ( 'NONE', #130 ) ;
#63 = ORIENTED_EDGE ( 'NONE', *, *, #290, .F. ) ;
#64 = CARTESIAN_POINT ( 'NONE',  ( 0.000000000000000000, 0.000000000000000000, 9.250000000000000000 ) ) ;
#65 = LINE ( 'NONE', #40, #307 ) ;
#66 = CARTESIAN_POINT ( 'NONE',  ( 20.00000000000000355, -7.599999999999999645, 24.99999999999999645 ) ) ;
#67 = DIRECTION ( 'NONE',  ( 0.000000000000000000, 1.000000000000000000, 0.000000000000000000 ) ) ;
#68 = EDGE_CURVE ( 'NONE', #205, #62, #229, .T. ) ;
#69 = EDGE_CURVE ( 'NONE', #62, #87, #285, .T. ) ;
#70 = ADVANCED_BREP_SHAPE_REPRESENTATION ( 'PART6^EYE TO EYE 5 LEAF 60MM SUSPENSION_REV_', ( #294, #266 ), #173 ) ;
#71 = CARTESIAN_POINT ( 'NONE',  ( -19.99999999999999645, -7.599999999999999645, 25.00000000000000000 ) ) ;
#72 = CARTESIAN_POINT ( 'NONE',  ( 20.00000000000000355, 0.000000000000000000, 24.99999999999999645 ) ) ;
#73 = EDGE_CURVE ( 'NONE', #270, #241, #65, .T. ) ;
#74 = DIRECTION ( 'NONE',  ( 0.000000000000000000, 1.000000000000000000, 0.000000000000000000 ) ) ;
#75 = CARTESIAN_POINT ( 'NONE',  ( 20.00000000000000355, 0.000000000000000000, -25.00000000000000355 ) ) ;
#76 = ORIENTED_EDGE ( 'NONE', *, *, #47, .T. ) ;
#77 = DIRECTION ( 'NONE',  ( 1.000000000000000000, -0.000000000000000000, -8.673617379884035472E-17 ) ) ;
#78 = DIRECTION ( 'NONE',  ( 1.000000000000000000, 0.000000000000000000, 0.000000000000000000 ) ) ;
#79 = VECTOR ( 'NONE', #242, 1000.000000000000000 ) ;
#80 = EDGE_CURVE ( 'NONE', #129, #248, #165, .T. ) ;
#81 = LOCAL_TIME ( 14, 50, 53.00000000000000000, #271 ) ;
#82 = EDGE_LOOP ( 'NONE', ( #179, #226, #159, #227 ) ) ;
#83 = APPROVAL_STATUS ( 'not_yet_approved' ) ;
#84 = ORIENTED_EDGE ( 'NONE', *, *, #69, .T. ) ;
#85 = CARTESIAN_POINT ( 'NONE',  ( 0.000000000000000000, -7.599999999999999645, 9.250000000000000000 ) ) ;
#86 = VECTOR ( 'NONE', #67, 1000.000000000000000 ) ;
#87 = VERTEX_POINT ( 'NONE', #64 ) ;
#88 = EDGE_LOOP ( 'NONE', ( #33, #225, #243, #30 ) ) ;
#89 = EDGE_CURVE ( 'NONE', #205, #15, #169, .T. ) ;
#90 = FACE_OUTER_BOUND ( 'NONE', #222, .T. ) ;
#91 = CC_DESIGN_PERSON_AND_ORGANIZATION_ASSIGNMENT ( #207, #228, ( #148 ) ) ;
#92 = ADVANCED_FACE ( 'NONE', ( #90 ), #283, .T. ) ;
#93 = VECTOR ( 'NONE', #135, 1000.000000000000000 ) ;
#94 = CARTESIAN_POINT ( 'NONE',  ( 0.000000000000000000, -7.599999999999999645, 0.000000000000000000 ) ) ;
#95 = DIRECTION ( 'NONE',  ( 0.000000000000000000, 0.000000000000000000, -1.000000000000000000 ) ) ;
#96 = LINE ( 'NONE', #190, #86 ) ;
#97 = CC_DESIGN_DATE_AND_TIME_ASSIGNMENT ( #152, #149, ( #148 ) ) ;
#98 = CARTESIAN_POINT ( 'NONE',  ( 1.132798289211301501E-15, -7.599999999999999645, -9.250000000000000000 ) ) ;
#99 = DIRECTION ( 'NONE',  ( 0.000000000000000000, 0.000000000000000000, 1.000000000000000000 ) ) ;
#100 = DIRECTION ( 'NONE',  ( 0.000000000000000000, 0.000000000000000000, 1.000000000000000000 ) ) ;
#101 = CARTESIAN_POINT ( 'NONE',  ( -19.99999999999999645, -7.599999999999999645, -24.99999999999999645 ) ) ;
#102 = CYLINDRICAL_SURFACE ( 'NONE', #39, 9.250000000000000000 ) ;
#103 = CC_DESIGN_PERSON_AND_ORGANIZATION_ASSIGNMENT ( #60, #267, ( #230 ) ) ;
#104 = EDGE_LOOP ( 'NONE', ( #63, #300, #203, #182 ) ) ;
#105 = DIRECTION ( 'NONE',  ( 0.000000000000000000, 0.000000000000000000, 1.000000000000000000 ) ) ;
#106 = ORIENTED_EDGE ( 'NONE', *, *, #261, .F. ) ;
#107 = EDGE_CURVE ( 'NONE', #56, #274, #281, .T. ) ;
#108 = DATE_AND_TIME ( #150, #145 ) ;
#109 = EDGE_LOOP ( 'NONE', ( #106, #184, #58, #269 ) ) ;
#110 = ORIENTED_EDGE ( 'NONE', *, *, #89, .F. ) ;
#111 = DIRECTION ( 'NONE',  ( 0.000000000000000000, 0.000000000000000000, 1.000000000000000000 ) ) ;
#112 = DIRECTION ( 'NONE',  ( 0.000000000000000000, 0.000000000000000000, 1.000000000000000000 ) ) ;
#113 = FACE_OUTER_BOUND ( 'NONE', #104, .T. ) ;
#114 = DIRECTION ( 'NONE',  ( 0.000000000000000000, 0.000000000000000000, 1.000000000000000000 ) ) ;
#115 = DIRECTION ( 'NONE',  ( 0.000000000000000000, 1.000000000000000000, 0.000000000000000000 ) ) ;
#116 = APPROVAL_PERSON_ORGANIZATION ( #199, #55, #128 ) ;
#117 = CARTESIAN_POINT ( 'NONE',  ( 20.00000000000000355, -7.599999999999999645, 24.99999999999999645 ) ) ;
#118 = APPROVAL_STATUS ( 'not_yet_approved' ) ;
#119 = CARTESIAN_POINT ( 'NONE',  ( 20.00000000000000355, 0.000000000000000000, 24.99999999999999645 ) ) ;
#120 = CARTESIAN_POINT ( 'NONE',  ( 20.00000000000000355, -7.599999999999999645, 24.99999999999999645 ) ) ;
#121 = CC_DESIGN_PERSON_AND_ORGANIZATION_ASSIGNMENT ( #25, #309, ( #183 ) ) ;
#122 = CALENDAR_DATE ( 2025, 17, 8 ) ;
#123 = ORIENTED_EDGE ( 'NONE', *, *, #13, .T. ) ;
#124 = VERTEX_POINT ( 'NONE', #253 ) ;
#125 = VECTOR ( 'NONE', #180, 1000.000000000000000 ) ;
#126 = APPROVAL ( #118, 'UNSPECIFIED' ) ;
#127 = ORIENTED_EDGE ( 'NONE', *, *, #73, .F. ) ;
#128 = APPROVAL_ROLE ( '' ) ;
#129 = VERTEX_POINT ( 'NONE', #209 ) ;
#130 = CARTESIAN_POINT ( 'NONE',  ( 1.132798289211301501E-15, 0.000000000000000000, -9.250000000000000000 ) ) ;
#131 = AXIS2_PLACEMENT_3D ( 'NONE', #120, #216, #221 ) ;
#132 = PRODUCT_DEFINITION_FORMATION_WITH_SPECIFIED_SOURCE ( 'ANY', '', #183, .NOT_KNOWN. ) ;
#133 = ADVANCED_FACE ( 'NONE', ( #22, #42 ), #277, .T. ) ;
#134 = FACE_OUTER_BOUND ( 'NONE', #109, .T. ) ;
#135 = DIRECTION ( 'NONE',  ( 1.000000000000000000, -0.000000000000000000, -8.673617379884035472E-17 ) ) ;
#136 = DIRECTION ( 'NONE',  ( -1.000000000000000000, 0.000000000000000000, 1.734723475976807094E-16 ) ) ;
#137 = AXIS2_PLACEMENT_3D ( 'NONE', #66, #234, #306 ) ;
#138 = DIRECTION ( 'NONE',  ( -0.000000000000000000, -0.000000000000000000, 1.000000000000000000 ) ) ;
#139 = CARTESIAN_POINT ( 'NONE',  ( 0.000000000000000000, -7.599999999999999645, 0.000000000000000000 ) ) ;
#140 = EDGE_CURVE ( 'NONE', #241, #129, #301, .T. ) ;
#141 = CC_DESIGN_PERSON_AND_ORGANIZATION_ASSIGNMENT ( #295, #292, ( #132 ) ) ;
#142 = VECTOR ( 'NONE', #35, 1000.000000000000000 ) ;
#143 = COORDINATED_UNIVERSAL_TIME_OFFSET ( 10, 0, .AHEAD. ) ;
#144 = ORIENTED_EDGE ( 'NONE', *, *, #107, .T. ) ;
#145 = LOCAL_TIME ( 14, 50, 53.00000000000000000, #298 ) ;
#146 = DIRECTION ( 'NONE',  ( -1.000000000000000000, 0.000000000000000000, 0.000000000000000000 ) ) ;
#147 = CIRCLE ( 'NONE', #6, 9.250000000000000000 ) ;
#148 = PRODUCT_DEFINITION ( 'UNKNOWN', '', #132, #163 ) ;
#149 = DATE_TIME_ROLE ( 'creation_date' ) ;
#150 = CALENDAR_DATE ( 2025, 17, 8 ) ;
#151 = ORIENTED_EDGE ( 'NONE', *, *, #217, .F. ) ;
#152 = DATE_AND_TIME ( #57, #81 ) ;
#153 = UNCERTAINTY_MEASURE_WITH_UNIT (LENGTH_MEASURE( 1.000000000000000082E-05 ), #289, 'distance_accuracy_value', 'NONE');
#154 = AXIS2_PLACEMENT_3D ( 'NONE', #139, #279, #112 ) ;
#155 = LINE ( 'NONE', #5, #142 ) ;
#156 = CALENDAR_DATE ( 2025, 17, 8 ) ;
#157 = VERTEX_POINT ( 'NONE', #166 ) ;
#158 = APPROVAL_DATE_TIME ( #108, #55 ) ;
#159 = ORIENTED_EDGE ( 'NONE', *, *, #290, .T. ) ;
#160 = ORIENTED_EDGE ( 'NONE', *, *, #89, .T. ) ;
#161 = DIRECTION ( 'NONE',  ( 0.000000000000000000, 1.000000000000000000, 0.000000000000000000 ) ) ;
#162 = CARTESIAN_POINT ( 'NONE',  ( 0.000000000000000000, 0.000000000000000000, 0.000000000000000000 ) ) ;
#163 = DESIGN_CONTEXT ( 'detailed design', #278, 'design' ) ;
#164 = DIRECTION ( 'NONE',  ( 0.000000000000000000, 1.000000000000000000, 0.000000000000000000 ) ) ;
#165 = LINE ( 'NONE', #214, #93 ) ;
#166 = CARTESIAN_POINT ( 'NONE',  ( -19.99999999999999645, -7.599999999999999645, 25.00000000000000000 ) ) ;
#167 = ADVANCED_FACE ( 'NONE', ( #276, #113 ), #254, .F. ) ;
#168 = PERSON_AND_ORGANIZATION ( #23, #264 ) ;
#169 = CIRCLE ( 'NONE', #154, 9.250000000000000000 ) ;
#170 = LOCAL_TIME ( 14, 50, 53.00000000000000000, #36 ) ;
#171 = APPROVAL_DATE_TIME ( #286, #126 ) ;
#172 = DIRECTION ( 'NONE',  ( -0.000000000000000000, -0.000000000000000000, 1.000000000000000000 ) ) ;
#173 =( GEOMETRIC_REPRESENTATION_CONTEXT ( 3 ) GLOBAL_UNCERTAINTY_ASSIGNED_CONTEXT ( ( #153 ) ) GLOBAL_UNIT_ASSIGNED_CONTEXT ( ( #289, #4, #288 ) ) REPRESENTATION_CONTEXT ( 'NONE', 'WORKASPACE' ) );
#174 = COORDINATED_UNIVERSAL_TIME_OFFSET ( 10, 0, .AHEAD. ) ;
#175 = VECTOR ( 'NONE', #77, 1000.000000000000000 ) ;
#176 = CC_DESIGN_SECURITY_CLASSIFICATION ( #230, ( #132 ) ) ;
#177 = ORIENTED_EDGE ( 'NONE', *, *, #302, .T. ) ;
#178 = DATE_AND_TIME ( #156, #308 ) ;
#179 = ORIENTED_EDGE ( 'NONE', *, *, #140, .F. ) ;
#180 = DIRECTION ( 'NONE',  ( 0.000000000000000000, 1.000000000000000000, 0.000000000000000000 ) ) ;
#181 = DATE_TIME_ROLE ( 'classification_date' ) ;
#182 = ORIENTED_EDGE ( 'NONE', *, *, #245, .F. ) ;
#183 = PRODUCT ( 'PART6^EYE TO EYE 5 LEAF 60MM SUSPENSION_REV_', 'PART6^EYE TO EYE 5 LEAF 60MM SUSPENSION_REV_', '', ( #240 ) ) ;
#184 = ORIENTED_EDGE ( 'NONE', *, *, #302, .F. ) ;
#185 = EDGE_CURVE ( 'NONE', #124, #56, #304, .T. ) ;
#186 = CARTESIAN_POINT ( 'NONE',  ( -19.99999999999999645, 0.000000000000000000, 25.00000000000000000 ) ) ;
#187 = VECTOR ( 'NONE', #115, 1000.000000000000000 ) ;
#188 = CARTESIAN_POINT ( 'NONE',  ( 20.00000000000000355, -7.599999999999999645, -25.00000000000000355 ) ) ;
#189 = PLANE ( 'NONE',  #137 ) ;
#190 = CARTESIAN_POINT ( 'NONE',  ( 0.000000000000000000, -7.599999999999999645, 9.250000000000000000 ) ) ;
#191 = AXIS2_PLACEMENT_3D ( 'NONE', #162, #41, #111 ) ;
#192 = FACE_OUTER_BOUND ( 'NONE', #82, .T. ) ;
#193 = ADVANCED_FACE ( 'NONE', ( #134 ), #189, .T. ) ;
#194 = CARTESIAN_POINT ( 'NONE',  ( -19.99999999999999645, -7.599999999999999645, 25.00000000000000000 ) ) ;
#195 = LINE ( 'NONE', #194, #265 ) ;
#196 = AXIS2_PLACEMENT_3D ( 'NONE', #232, #164, #212 ) ;
#197 = ADVANCED_FACE ( 'NONE', ( #252 ), #18, .F. ) ;
#198 = CARTESIAN_POINT ( 'NONE',  ( 0.000000000000000000, 0.000000000000000000, 0.000000000000000000 ) ) ;
#199 = PERSON_AND_ORGANIZATION ( #23, #264 ) ;
#200 = EDGE_LOOP ( 'NONE', ( #34, #160 ) ) ;
#201 = PERSON_AND_ORGANIZATION ( #23, #264 ) ;
#202 = ORIENTED_EDGE ( 'NONE', *, *, #3, .F. ) ;
#203 = ORIENTED_EDGE ( 'NONE', *, *, #185, .F. ) ;
#204 = EDGE_CURVE ( 'NONE', #15, #205, #258, .T. ) ;
#205 = VERTEX_POINT ( 'NONE', #305 ) ;
#206 = LOCAL_TIME ( 14, 50, 53.00000000000000000, #143 ) ;
#207 = PERSON_AND_ORGANIZATION ( #23, #264 ) ;
#208 = ORIENTED_EDGE ( 'NONE', *, *, #204, .F. ) ;
#209 = CARTESIAN_POINT ( 'NONE',  ( -19.99999999999999645, 0.000000000000000000, 25.00000000000000000 ) ) ;
#210 = DIRECTION ( 'NONE',  ( 0.000000000000000000, 1.000000000000000000, 0.000000000000000000 ) ) ;
#211 = PRODUCT_RELATED_PRODUCT_CATEGORY ( 'detail', '', ( #183 ) ) ;
#212 = DIRECTION ( 'NONE',  ( 0.000000000000000000, -0.000000000000000000, 1.000000000000000000 ) ) ;
#213 = CARTESIAN_POINT ( 'NONE',  ( 0.000000000000000000, -7.599999999999999645, 0.000000000000000000 ) ) ;
#214 = CARTESIAN_POINT ( 'NONE',  ( 20.00000000000000355, 0.000000000000000000, 24.99999999999999645 ) ) ;
#215 = VECTOR ( 'NONE', #263, 1000.000000000000000 ) ;
#216 = DIRECTION ( 'NONE',  ( 8.673617379884036705E-17, -0.000000000000000000, 1.000000000000000000 ) ) ;
#217 = EDGE_CURVE ( 'NONE', #15, #87, #96, .T. ) ;
#218 = CALENDAR_DATE ( 2025, 17, 8 ) ;
#219 = AXIS2_PLACEMENT_3D ( 'NONE', #188, #236, #256 ) ;
#220 = LINE ( 'NONE', #72, #255 ) ;
#221 = DIRECTION ( 'NONE',  ( 1.000000000000000000, 0.000000000000000000, -8.673617379884036705E-17 ) ) ;
#222 = EDGE_LOOP ( 'NONE', ( #127, #202, #144, #76 ) ) ;
#223 = ORIENTED_EDGE ( 'NONE', *, *, #80, .F. ) ;
#224 = AXIS2_PLACEMENT_3D ( 'NONE', #213, #210, #303 ) ;
#225 = ORIENTED_EDGE ( 'NONE', *, *, #80, .T. ) ;
#226 = ORIENTED_EDGE ( 'NONE', *, *, #47, .F. ) ;
#227 = ORIENTED_EDGE ( 'NONE', *, *, #299, .T. ) ;
#228 = PERSON_AND_ORGANIZATION_ROLE ( 'creator' ) ;
#229 = LINE ( 'NONE', #98, #187 ) ;
#230 = SECURITY_CLASSIFICATION ( '', '', #9 ) ;
#231 = PLANE ( 'NONE',  #12 ) ;
#232 = CARTESIAN_POINT ( 'NONE',  ( 0.000000000000000000, -7.599999999999999645, 0.000000000000000000 ) ) ;
#233 = CARTESIAN_POINT ( 'NONE',  ( 0.000000000000000000, 0.000000000000000000, 0.000000000000000000 ) ) ;
#234 = DIRECTION ( 'NONE',  ( 1.000000000000000000, -0.000000000000000000, 0.000000000000000000 ) ) ;
#235 = ADVANCED_FACE ( 'NONE', ( #192 ), #231, .T. ) ;
#236 = DIRECTION ( 'NONE',  ( -1.734723475976807341E-16, 0.000000000000000000, -1.000000000000000000 ) ) ;
#237 = CARTESIAN_POINT ( 'NONE',  ( 0.000000000000000000, -7.599999999999999645, 0.000000000000000000 ) ) ;
#238 = CARTESIAN_POINT ( 'NONE',  ( -19.99999999999999645, -7.599999999999999645, 25.00000000000000000 ) ) ;
#239 = APPLICATION_PROTOCOL_DEFINITION ( 'international standard', 'config_control_design', 1994, #287 ) ;
#240 = MECHANICAL_CONTEXT ( 'NONE', #287, 'mechanical' ) ;
#241 = VERTEX_POINT ( 'NONE', #311 ) ;
#242 = DIRECTION ( 'NONE',  ( 0.000000000000000000, 1.000000000000000000, 0.000000000000000000 ) ) ;
#243 = ORIENTED_EDGE ( 'NONE', *, *, #261, .T. ) ;
#244 = PERSON_AND_ORGANIZATION_ROLE ( 'creator' ) ;
#245 = EDGE_CURVE ( 'NONE', #157, #124, #1, .T. ) ;
#246 = ORIENTED_EDGE ( 'NONE', *, *, #299, .F. ) ;
#247 = CLOSED_SHELL ( 'NONE', ( #197, #235, #92, #193, #310, #167, #133, #282 ) ) ;
#248 = VERTEX_POINT ( 'NONE', #119 ) ;
#249 = CARTESIAN_POINT ( 'NONE',  ( -19.99999999999999645, -7.599999999999999645, -24.99999999999999645 ) ) ;
#250 = DIRECTION ( 'NONE',  ( 0.000000000000000000, 1.000000000000000000, 0.000000000000000000 ) ) ;
#251 = ORIENTED_EDGE ( 'NONE', *, *, #245, .T. ) ;
#252 = FACE_OUTER_BOUND ( 'NONE', #11, .T. ) ;
#253 = CARTESIAN_POINT ( 'NONE',  ( 20.00000000000000355, -7.599999999999999645, 24.99999999999999645 ) ) ;
#254 = PLANE ( 'NONE',  #196 ) ;
#255 = VECTOR ( 'NONE', #29, 1000.000000000000000 ) ;
#256 = DIRECTION ( 'NONE',  ( -1.000000000000000000, 0.000000000000000000, 1.734723475976807341E-16 ) ) ;
#257 = LINE ( 'NONE', #117, #79 ) ;
#258 = CIRCLE ( 'NONE', #224, 9.250000000000000000 ) ;
#259 = PRODUCT_DEFINITION_SHAPE ( 'NONE', 'NONE',  #148 ) ;
#260 = PLANE ( 'NONE',  #131 ) ;
#261 = EDGE_CURVE ( 'NONE', #248, #270, #220, .T. ) ;
#262 = CARTESIAN_POINT ( 'NONE',  ( 20.00000000000000355, -7.599999999999999645, 24.99999999999999645 ) ) ;
#263 = DIRECTION ( 'NONE',  ( 0.000000000000000000, 1.000000000000000000, 0.000000000000000000 ) ) ;
#264 = ORGANIZATION ( 'UNSPECIFIED', 'UNSPECIFIED', '' ) ;
#265 = VECTOR ( 'NONE', #172, 1000.000000000000000 ) ;
#266 = AXIS2_PLACEMENT_3D ( 'NONE', #198, #99, #78 ) ;
#267 = PERSON_AND_ORGANIZATION_ROLE ( 'classification_officer' ) ;
#268 = APPROVAL_STATUS ( 'not_yet_approved' ) ;
#269 = ORIENTED_EDGE ( 'NONE', *, *, #3, .T. ) ;
#270 = VERTEX_POINT ( 'NONE', #75 ) ;
#271 = COORDINATED_UNIVERSAL_TIME_OFFSET ( 10, 0, .AHEAD. ) ;
#272 = CARTESIAN_POINT ( 'NONE',  ( 20.00000000000000355, -7.599999999999999645, -25.00000000000000355 ) ) ;
#273 = DATE_AND_TIME ( #122, #170 ) ;
#274 = VERTEX_POINT ( 'NONE', #101 ) ;
#275 = EDGE_LOOP ( 'NONE', ( #28, #208, #10, #123 ) ) ;
#276 = FACE_BOUND ( 'NONE', #200, .T. ) ;
#277 = PLANE ( 'NONE',  #50 ) ;
#278 = APPLICATION_CONTEXT ( 'configuration controlled 3d designs of mechanical parts and assemblies' ) ;
#279 = DIRECTION ( 'NONE',  ( 0.000000000000000000, 1.000000000000000000, 0.000000000000000000 ) ) ;
#280 = CC_DESIGN_APPROVAL ( #55, ( #132 ) ) ;
#281 = LINE ( 'NONE', #24, #19 ) ;
#282 = ADVANCED_FACE ( 'NONE', ( #48 ), #102, .F. ) ;
#283 = PLANE ( 'NONE',  #219 ) ;
#284 = FACE_OUTER_BOUND ( 'NONE', #8, .T. ) ;
#285 = CIRCLE ( 'NONE', #191, 9.250000000000000000 ) ;
#286 = DATE_AND_TIME ( #218, #206 ) ;
#287 = APPLICATION_CONTEXT ( 'configuration controlled 3d designs of mechanical parts and assemblies' ) ;
#288 =( NAMED_UNIT ( * ) SI_UNIT ( $, .STERADIAN. ) SOLID_ANGLE_UNIT ( ) );
#289 =( LENGTH_UNIT ( ) NAMED_UNIT ( * ) SI_UNIT ( .MILLI., .METRE. ) );
#290 = EDGE_CURVE ( 'NONE', #274, #157, #195, .T. ) ;
#291 = ORIENTED_EDGE ( 'NONE', *, *, #68, .T. ) ;
#292 = PERSON_AND_ORGANIZATION_ROLE ( 'design_supplier' ) ;
#293 = ORIENTED_EDGE ( 'NONE', *, *, #69, .F. ) ;
#294 = MANIFOLD_SOLID_BREP ( 'Base-Flange1', #247 ) ;
#295 = PERSON_AND_ORGANIZATION ( #23, #264 ) ;
#296 = CARTESIAN_POINT ( 'NONE',  ( 0.000000000000000000, 0.000000000000000000, 0.000000000000000000 ) ) ;
#297 = EDGE_LOOP ( 'NONE', ( #61, #293 ) ) ;
#298 = COORDINATED_UNIVERSAL_TIME_OFFSET ( 10, 0, .AHEAD. ) ;
#299 = EDGE_CURVE ( 'NONE', #157, #129, #52, .T. ) ;
#300 = ORIENTED_EDGE ( 'NONE', *, *, #107, .F. ) ;
#301 = LINE ( 'NONE', #186, #53 ) ;
#302 = EDGE_CURVE ( 'NONE', #124, #248, #257, .T. ) ;
#303 = DIRECTION ( 'NONE',  ( 0.000000000000000000, 0.000000000000000000, 1.000000000000000000 ) ) ;
#304 = LINE ( 'NONE', #46, #59 ) ;
#305 = CARTESIAN_POINT ( 'NONE',  ( 1.132798289211301501E-15, -7.599999999999999645, -9.250000000000000000 ) ) ;
#306 = DIRECTION ( 'NONE',  ( 0.000000000000000000, 0.000000000000000000, -1.000000000000000000 ) ) ;
#307 = VECTOR ( 'NONE', #136, 1000.000000000000000 ) ;
#308 = LOCAL_TIME ( 14, 50, 53.00000000000000000, #174 ) ;
#309 = PERSON_AND_ORGANIZATION_ROLE ( 'design_owner' ) ;
#310 = ADVANCED_FACE ( 'NONE', ( #284 ), #260, .T. ) ;
#311 = CARTESIAN_POINT ( 'NONE',  ( -19.99999999999999645, 0.000000000000000000, -24.99999999999999645 ) ) ;
ENDSEC;
END-ISO-10303-21;
