ISO-10303-21;
HEADER;
FILE_DESCRIPTION (( 'STEP AP203' ),
    '1' );
FILE_NAME ('PLYWOOD-12MM_REV_.step',
    '2025-08-17T05:13:23',
    ( '' ),
    ( '' ),
    'SwSTEP 2.0',
    'SolidWorks 2024',
    '' );
FILE_SCHEMA (( 'CONFIG_CONTROL_DESIGN' ));
ENDSEC;

DATA;
#1 = PERSON_AND_ORGANIZATION ( #140, #86 ) ;
#2 = ORIENTED_EDGE ( 'NONE', *, *, #181, .F. ) ;
#3 = SECURITY_CLASSIFICATION ( '', '', #17 ) ;
#4 = VERTEX_POINT ( 'NONE', #230 ) ;
#5 = ORIENTED_EDGE ( 'NONE', *, *, #103, .F. ) ;
#6 = VERTEX_POINT ( 'NONE', #58 ) ;
#7 = COORDINATED_UNIVERSAL_TIME_OFFSET ( 10, 0, .AHEAD. ) ;
#8 = ORIENTED_EDGE ( 'NONE', *, *, #221, .T. ) ;
#9 = LINE ( 'NONE', #178, #67 ) ;
#10 = CC_DESIGN_DATE_AND_TIME_ASSIGNMENT ( #186, #111, ( #131 ) ) ;
#11 = LINE ( 'NONE', #120, #182 ) ;
#12 = CARTESIAN_POINT ( 'NONE',  ( -1220.000000000000000, 6.000000000000000000, -609.9999999999998863 ) ) ;
#13 = PERSON_AND_ORGANIZATION_ROLE ( 'design_owner' ) ;
#14 = CC_DESIGN_SECURITY_CLASSIFICATION ( #3, ( #215 ) ) ;
#15 = DIRECTION ( 'NONE',  ( -0.000000000000000000, -0.000000000000000000, 1.000000000000000000 ) ) ;
#16 = LINE ( 'NONE', #164, #52 ) ;
#17 = SECURITY_CLASSIFICATION_LEVEL ( 'unclassified' ) ;
#18 = PERSON_AND_ORGANIZATION ( #140, #86 ) ;
#19 = ORIENTED_EDGE ( 'NONE', *, *, #221, .F. ) ;
#20 = DATE_TIME_ROLE ( 'classification_date' ) ;
#21 = ORIENTED_EDGE ( 'NONE', *, *, #235, .F. ) ;
#22 = ORIENTED_EDGE ( 'NONE', *, *, #191, .F. ) ;
#23 = CARTESIAN_POINT ( 'NONE',  ( 1220.000000000000000, 6.000000000000000000, 610.0000000000001137 ) ) ;
#24 = ADVANCED_FACE ( 'NONE', ( #228 ), #136, .F. ) ;
#25 = FACE_OUTER_BOUND ( 'NONE', #190, .T. ) ;
#26 = VECTOR ( 'NONE', #122, 1000.000000000000000 ) ;
#27 = CARTESIAN_POINT ( 'NONE',  ( 1220.000000000000000, -6.000000000000000000, 610.0000000000001137 ) ) ;
#28 = DIRECTION ( 'NONE',  ( 0.000000000000000000, 0.000000000000000000, -1.000000000000000000 ) ) ;
#29 = EDGE_CURVE ( 'NONE', #57, #6, #61, .T. ) ;
#30 = CARTESIAN_POINT ( 'NONE',  ( -1220.000000000000000, 6.000000000000000000, -609.9999999999998863 ) ) ;
#31 = ADVANCED_FACE ( 'NONE', ( #116 ), #81, .F. ) ;
#32 = APPLICATION_PROTOCOL_DEFINITION ( 'international standard', 'config_control_design', 1994, #231 ) ;
#33 =( GEOMETRIC_REPRESENTATION_CONTEXT ( 3 ) GLOBAL_UNCERTAINTY_ASSIGNED_CONTEXT ( ( #142 ) ) GLOBAL_UNIT_ASSIGNED_CONTEXT ( ( #129, #130, #69 ) ) REPRESENTATION_CONTEXT ( 'NONE', 'WORKASPACE' ) );
#34 = COORDINATED_UNIVERSAL_TIME_OFFSET ( 10, 0, .AHEAD. ) ;
#35 = ORIENTED_EDGE ( 'NONE', *, *, #203, .F. ) ;
#36 = APPLICATION_CONTEXT ( 'configuration controlled 3d designs of mechanical parts and assemblies' ) ;
#37 = ORIENTED_EDGE ( 'NONE', *, *, #148, .T. ) ;
#38 = APPROVAL_ROLE ( '' ) ;
#39 = DIRECTION ( 'NONE',  ( 0.000000000000000000, -1.000000000000000000, 0.000000000000000000 ) ) ;
#40 = APPROVAL_DATE_TIME ( #138, #196 ) ;
#41 = LINE ( 'NONE', #23, #68 ) ;
#42 = ORIENTED_EDGE ( 'NONE', *, *, #29, .T. ) ;
#43 = LOCAL_TIME ( 15, 13, 23.00000000000000000, #132 ) ;
#44 = CARTESIAN_POINT ( 'NONE',  ( 1220.000000000000000, 6.000000000000000000, -609.9999999999998863 ) ) ;
#45 = MECHANICAL_CONTEXT ( 'NONE', #231, 'mechanical' ) ;
#46 = APPROVAL_STATUS ( 'not_yet_approved' ) ;
#47 = CARTESIAN_POINT ( 'NONE',  ( -1220.000000000000000, -6.000000000000000000, 610.0000000000001137 ) ) ;
#48 = CARTESIAN_POINT ( 'NONE',  ( -1220.000000000000000, 6.000000000000000000, 610.0000000000001137 ) ) ;
#49 = APPROVAL ( #46, 'UNSPECIFIED' ) ;
#50 = DIRECTION ( 'NONE',  ( -1.000000000000000000, -0.000000000000000000, -0.000000000000000000 ) ) ;
#51 = CALENDAR_DATE ( 2025, 17, 8 ) ;
#52 = VECTOR ( 'NONE', #15, 1000.000000000000000 ) ;
#53 = CC_DESIGN_PERSON_AND_ORGANIZATION_ASSIGNMENT ( #167, #71, ( #215 ) ) ;
#54 = ORIENTED_EDGE ( 'NONE', *, *, #191, .T. ) ;
#55 = ORIENTED_EDGE ( 'NONE', *, *, #29, .F. ) ;
#56 = VECTOR ( 'NONE', #145, 1000.000000000000000 ) ;
#57 = VERTEX_POINT ( 'NONE', #79 ) ;
#58 = CARTESIAN_POINT ( 'NONE',  ( 1220.000000000000000, -6.000000000000000000, -609.9999999999998863 ) ) ;
#59 = DIRECTION ( 'NONE',  ( 0.000000000000000000, 0.000000000000000000, 1.000000000000000000 ) ) ;
#60 = APPROVAL ( #165, 'UNSPECIFIED' ) ;
#61 = LINE ( 'NONE', #44, #193 ) ;
#62 = FACE_OUTER_BOUND ( 'NONE', #188, .T. ) ;
#63 = CARTESIAN_POINT ( 'NONE',  ( -1220.000000000000000, 6.000000000000000000, 610.0000000000001137 ) ) ;
#64 = APPROVAL_PERSON_ORGANIZATION ( #1, #196, #156 ) ;
#65 = DIRECTION ( 'NONE',  ( -0.000000000000000000, -1.000000000000000000, -0.000000000000000000 ) ) ;
#66 = EDGE_CURVE ( 'NONE', #74, #57, #41, .T. ) ;
#67 = VECTOR ( 'NONE', #83, 1000.000000000000000 ) ;
#68 = VECTOR ( 'NONE', #139, 1000.000000000000000 ) ;
#69 =( NAMED_UNIT ( * ) SI_UNIT ( $, .STERADIAN. ) SOLID_ANGLE_UNIT ( ) );
#70 = DATE_AND_TIME ( #115, #128 ) ;
#71 = PERSON_AND_ORGANIZATION_ROLE ( 'design_supplier' ) ;
#72 = VERTEX_POINT ( 'NONE', #96 ) ;
#73 = VECTOR ( 'NONE', #237, 1000.000000000000000 ) ;
#74 = VERTEX_POINT ( 'NONE', #179 ) ;
#75 = ORIENTED_EDGE ( 'NONE', *, *, #108, .F. ) ;
#76 = EDGE_LOOP ( 'NONE', ( #93, #90, #19, #75 ) ) ;
#77 = ADVANCED_FACE ( 'NONE', ( #62 ), #102, .F. ) ;
#78 = LOCAL_TIME ( 15, 13, 23.00000000000000000, #34 ) ;
#79 = CARTESIAN_POINT ( 'NONE',  ( 1220.000000000000000, 6.000000000000000000, -609.9999999999998863 ) ) ;
#80 = CALENDAR_DATE ( 2025, 17, 8 ) ;
#81 = PLANE ( 'NONE',  #163 ) ;
#82 = FACE_OUTER_BOUND ( 'NONE', #76, .T. ) ;
#83 = DIRECTION ( 'NONE',  ( 1.000000000000000000, 0.000000000000000000, 0.000000000000000000 ) ) ;
#84 = LINE ( 'NONE', #27, #187 ) ;
#85 = CARTESIAN_POINT ( 'NONE',  ( 0.000000000000000000, 0.000000000000000000, 0.000000000000000000 ) ) ;
#86 = ORGANIZATION ( 'UNSPECIFIED', 'UNSPECIFIED', '' ) ;
#87 = APPLICATION_PROTOCOL_DEFINITION ( 'international standard', 'config_control_design', 1994, #36 ) ;
#88 = LINE ( 'NONE', #48, #222 ) ;
#89 = PERSON_AND_ORGANIZATION_ROLE ( 'creator' ) ;
#90 = ORIENTED_EDGE ( 'NONE', *, *, #219, .F. ) ;
#91 = VECTOR ( 'NONE', #65, 1000.000000000000000 ) ;
#92 = ADVANCED_FACE ( 'NONE', ( #25 ), #137, .F. ) ;
#93 = ORIENTED_EDGE ( 'NONE', *, *, #148, .F. ) ;
#94 = ORIENTED_EDGE ( 'NONE', *, *, #235, .T. ) ;
#95 = DATE_AND_TIME ( #166, #43 ) ;
#96 = CARTESIAN_POINT ( 'NONE',  ( -1220.000000000000000, 6.000000000000000000, 610.0000000000001137 ) ) ;
#97 = PRODUCT_RELATED_PRODUCT_CATEGORY ( 'detail', '', ( #117 ) ) ;
#98 = CALENDAR_DATE ( 2025, 17, 8 ) ;
#99 = DIRECTION ( 'NONE',  ( 0.000000000000000000, 0.000000000000000000, -1.000000000000000000 ) ) ;
#100 = AXIS2_PLACEMENT_3D ( 'NONE', #157, #143, #59 ) ;
#101 = MANIFOLD_SOLID_BREP ( 'Boss-Extrude1', #177 ) ;
#102 = PLANE ( 'NONE',  #100 ) ;
#103 = EDGE_CURVE ( 'NONE', #72, #74, #9, .T. ) ;
#104 = DIRECTION ( 'NONE',  ( -1.000000000000000000, 0.000000000000000000, -0.000000000000000000 ) ) ;
#105 = PERSON_AND_ORGANIZATION ( #140, #86 ) ;
#106 = LOCAL_TIME ( 15, 13, 23.00000000000000000, #7 ) ;
#107 = LINE ( 'NONE', #144, #91 ) ;
#108 = EDGE_CURVE ( 'NONE', #6, #4, #11, .T. ) ;
#109 = PERSON_AND_ORGANIZATION_ROLE ( 'creator' ) ;
#110 = CC_DESIGN_PERSON_AND_ORGANIZATION_ASSIGNMENT ( #211, #119, ( #3 ) ) ;
#111 = DATE_TIME_ROLE ( 'creation_date' ) ;
#112 = ORIENTED_EDGE ( 'NONE', *, *, #108, .T. ) ;
#113 = VERTEX_POINT ( 'NONE', #175 ) ;
#114 = ADVANCED_FACE ( 'NONE', ( #82 ), #197, .T. ) ;
#115 = CALENDAR_DATE ( 2025, 17, 8 ) ;
#116 = FACE_OUTER_BOUND ( 'NONE', #208, .T. ) ;
#117 = PRODUCT ( 'PLYWOOD-12MM_REV_', 'PLYWOOD-12MM_REV_', '', ( #45 ) ) ;
#118 = AXIS2_PLACEMENT_3D ( 'NONE', #85, #161, #217 ) ;
#119 = PERSON_AND_ORGANIZATION_ROLE ( 'classification_officer' ) ;
#120 = CARTESIAN_POINT ( 'NONE',  ( -1220.000000000000000, -6.000000000000000000, -609.9999999999998863 ) ) ;
#121 = DIRECTION ( 'NONE',  ( 0.000000000000000000, -1.000000000000000000, 0.000000000000000000 ) ) ;
#122 = DIRECTION ( 'NONE',  ( -0.000000000000000000, -1.000000000000000000, -0.000000000000000000 ) ) ;
#123 = EDGE_CURVE ( 'NONE', #72, #135, #229, .T. ) ;
#124 = APPROVAL_PERSON_ORGANIZATION ( #18, #60, #38 ) ;
#125 = DIRECTION ( 'NONE',  ( 1.000000000000000000, -0.000000000000000000, 0.000000000000000000 ) ) ;
#126 = PLANE ( 'NONE',  #168 ) ;
#127 = FACE_OUTER_BOUND ( 'NONE', #152, .T. ) ;
#128 = LOCAL_TIME ( 15, 13, 23.00000000000000000, #149 ) ;
#129 =( LENGTH_UNIT ( ) NAMED_UNIT ( * ) SI_UNIT ( .MILLI., .METRE. ) );
#130 =( NAMED_UNIT ( * ) PLANE_ANGLE_UNIT ( ) SI_UNIT ( $, .RADIAN. ) );
#131 = PRODUCT_DEFINITION ( 'UNKNOWN', '', #215, #189 ) ;
#132 = COORDINATED_UNIVERSAL_TIME_OFFSET ( 10, 0, .AHEAD. ) ;
#133 = PRODUCT_DEFINITION_SHAPE ( 'NONE', 'NONE',  #131 ) ;
#134 = AXIS2_PLACEMENT_3D ( 'NONE', #63, #125, #28 ) ;
#135 = VERTEX_POINT ( 'NONE', #198 ) ;
#136 = PLANE ( 'NONE',  #134 ) ;
#137 = PLANE ( 'NONE',  #210 ) ;
#138 = DATE_AND_TIME ( #51, #106 ) ;
#139 = DIRECTION ( 'NONE',  ( 0.000000000000000000, 0.000000000000000000, -1.000000000000000000 ) ) ;
#140 = PERSON ( 'UNSPECIFIED', 'UNSPECIFIED', 'UNSPECIFIED', ('UNSPECIFIED'), ('UNSPECIFIED'), ('UNSPECIFIED') ) ;
#141 = DIRECTION ( 'NONE',  ( -1.000000000000000000, -0.000000000000000000, -0.000000000000000000 ) ) ;
#142 = UNCERTAINTY_MEASURE_WITH_UNIT (LENGTH_MEASURE( 1.000000000000000082E-05 ), #129, 'distance_accuracy_value', 'NONE');
#143 = DIRECTION ( 'NONE',  ( -1.000000000000000000, 0.000000000000000000, 0.000000000000000000 ) ) ;
#144 = CARTESIAN_POINT ( 'NONE',  ( -1220.000000000000000, 6.000000000000000000, -609.9999999999998863 ) ) ;
#145 = DIRECTION ( 'NONE',  ( -0.000000000000000000, -1.000000000000000000, -0.000000000000000000 ) ) ;
#146 = LINE ( 'NONE', #47, #73 ) ;
#147 = DIRECTION ( 'NONE',  ( 0.000000000000000000, 0.000000000000000000, 1.000000000000000000 ) ) ;
#148 = EDGE_CURVE ( 'NONE', #113, #6, #84, .T. ) ;
#149 = COORDINATED_UNIVERSAL_TIME_OFFSET ( 10, 0, .AHEAD. ) ;
#150 = ORIENTED_EDGE ( 'NONE', *, *, #219, .T. ) ;
#151 = CC_DESIGN_APPROVAL ( #60, ( #3 ) ) ;
#152 = EDGE_LOOP ( 'NONE', ( #112, #35, #21, #42 ) ) ;
#153 = ORIENTED_EDGE ( 'NONE', *, *, #103, .T. ) ;
#154 = APPROVAL_PERSON_ORGANIZATION ( #162, #49, #173 ) ;
#155 = CC_DESIGN_PERSON_AND_ORGANIZATION_ASSIGNMENT ( #225, #109, ( #215 ) ) ;
#156 = APPROVAL_ROLE ( '' ) ;
#157 = CARTESIAN_POINT ( 'NONE',  ( 1220.000000000000000, 6.000000000000000000, 610.0000000000001137 ) ) ;
#158 = DIRECTION ( 'NONE',  ( 0.000000000000000000, -0.000000000000000000, -1.000000000000000000 ) ) ;
#159 = CARTESIAN_POINT ( 'NONE',  ( 0.000000000000000000, -6.000000000000000000, 0.000000000000000000 ) ) ;
#160 = DIRECTION ( 'NONE',  ( 0.000000000000000000, 0.000000000000000000, -1.000000000000000000 ) ) ;
#161 = DIRECTION ( 'NONE',  ( 0.000000000000000000, 0.000000000000000000, 1.000000000000000000 ) ) ;
#162 = PERSON_AND_ORGANIZATION ( #140, #86 ) ;
#163 = AXIS2_PLACEMENT_3D ( 'NONE', #192, #99, #104 ) ;
#164 = CARTESIAN_POINT ( 'NONE',  ( -1220.000000000000000, -6.000000000000000000, 610.0000000000001137 ) ) ;
#165 = APPROVAL_STATUS ( 'not_yet_approved' ) ;
#166 = CALENDAR_DATE ( 2025, 17, 8 ) ;
#167 = PERSON_AND_ORGANIZATION ( #140, #86 ) ;
#168 = AXIS2_PLACEMENT_3D ( 'NONE', #12, #147, #236 ) ;
#169 = ORIENTED_EDGE ( 'NONE', *, *, #66, .T. ) ;
#170 = ORIENTED_EDGE ( 'NONE', *, *, #123, .F. ) ;
#171 = EDGE_LOOP ( 'NONE', ( #8, #170, #22, #184 ) ) ;
#172 = CC_DESIGN_APPROVAL ( #49, ( #131 ) ) ;
#173 = APPROVAL_ROLE ( '' ) ;
#174 = SHAPE_DEFINITION_REPRESENTATION ( #133, #234 ) ;
#175 = CARTESIAN_POINT ( 'NONE',  ( 1220.000000000000000, -6.000000000000000000, 610.0000000000001137 ) ) ;
#176 = DIRECTION ( 'NONE',  ( -0.000000000000000000, -1.000000000000000000, -0.000000000000000000 ) ) ;
#177 = CLOSED_SHELL ( 'NONE', ( #77, #185, #24, #31, #92, #114 ) ) ;
#178 = CARTESIAN_POINT ( 'NONE',  ( -1220.000000000000000, 6.000000000000000000, 610.0000000000001137 ) ) ;
#179 = CARTESIAN_POINT ( 'NONE',  ( 1220.000000000000000, 6.000000000000000000, 610.0000000000001137 ) ) ;
#180 = CC_DESIGN_DATE_AND_TIME_ASSIGNMENT ( #70, #20, ( #3 ) ) ;
#181 = EDGE_CURVE ( 'NONE', #74, #113, #232, .T. ) ;
#182 = VECTOR ( 'NONE', #141, 1000.000000000000000 ) ;
#183 = PERSON_AND_ORGANIZATION ( #140, #86 ) ;
#184 = ORIENTED_EDGE ( 'NONE', *, *, #203, .T. ) ;
#185 = ADVANCED_FACE ( 'NONE', ( #127 ), #126, .F. ) ;
#186 = DATE_AND_TIME ( #98, #78 ) ;
#187 = VECTOR ( 'NONE', #160, 1000.000000000000000 ) ;
#188 = EDGE_LOOP ( 'NONE', ( #37, #55, #212, #224 ) ) ;
#189 = DESIGN_CONTEXT ( 'detailed design', #36, 'design' ) ;
#190 = EDGE_LOOP ( 'NONE', ( #169, #94, #54, #153 ) ) ;
#191 = EDGE_CURVE ( 'NONE', #223, #72, #88, .T. ) ;
#192 = CARTESIAN_POINT ( 'NONE',  ( -1220.000000000000000, 6.000000000000000000, 610.0000000000001137 ) ) ;
#193 = VECTOR ( 'NONE', #176, 1000.000000000000000 ) ;
#194 = COORDINATED_UNIVERSAL_TIME_OFFSET ( 10, 0, .AHEAD. ) ;
#195 = CARTESIAN_POINT ( 'NONE',  ( 0.000000000000000000, 6.000000000000000000, 0.000000000000000000 ) ) ;
#196 = APPROVAL ( #220, 'UNSPECIFIED' ) ;
#197 = PLANE ( 'NONE',  #209 ) ;
#198 = CARTESIAN_POINT ( 'NONE',  ( -1220.000000000000000, -6.000000000000000000, 610.0000000000001137 ) ) ;
#199 = VECTOR ( 'NONE', #50, 1000.000000000000000 ) ;
#200 = ORIENTED_EDGE ( 'NONE', *, *, #123, .T. ) ;
#201 = DIRECTION ( 'NONE',  ( -0.000000000000000000, -0.000000000000000000, 1.000000000000000000 ) ) ;
#202 = CARTESIAN_POINT ( 'NONE',  ( 1220.000000000000000, 6.000000000000000000, 610.0000000000001137 ) ) ;
#203 = EDGE_CURVE ( 'NONE', #223, #4, #107, .T. ) ;
#204 = CC_DESIGN_APPROVAL ( #196, ( #215 ) ) ;
#205 = APPROVAL_DATE_TIME ( #95, #49 ) ;
#206 = DATE_AND_TIME ( #80, #216 ) ;
#207 = CC_DESIGN_PERSON_AND_ORGANIZATION_ASSIGNMENT ( #105, #13, ( #117 ) ) ;
#208 = EDGE_LOOP ( 'NONE', ( #150, #2, #5, #200 ) ) ;
#209 = AXIS2_PLACEMENT_3D ( 'NONE', #159, #121, #158 ) ;
#210 = AXIS2_PLACEMENT_3D ( 'NONE', #195, #39, #214 ) ;
#211 = PERSON_AND_ORGANIZATION ( #140, #86 ) ;
#212 = ORIENTED_EDGE ( 'NONE', *, *, #66, .F. ) ;
#213 = CARTESIAN_POINT ( 'NONE',  ( -1220.000000000000000, 6.000000000000000000, 610.0000000000001137 ) ) ;
#214 = DIRECTION ( 'NONE',  ( 0.000000000000000000, -0.000000000000000000, -1.000000000000000000 ) ) ;
#215 = PRODUCT_DEFINITION_FORMATION_WITH_SPECIFIED_SOURCE ( 'ANY', '', #117, .NOT_KNOWN. ) ;
#216 = LOCAL_TIME ( 15, 13, 23.00000000000000000, #194 ) ;
#217 = DIRECTION ( 'NONE',  ( 1.000000000000000000, 0.000000000000000000, 0.000000000000000000 ) ) ;
#218 = LINE ( 'NONE', #233, #199 ) ;
#219 = EDGE_CURVE ( 'NONE', #135, #113, #146, .T. ) ;
#220 = APPROVAL_STATUS ( 'not_yet_approved' ) ;
#221 = EDGE_CURVE ( 'NONE', #4, #135, #16, .T. ) ;
#222 = VECTOR ( 'NONE', #201, 1000.000000000000000 ) ;
#223 = VERTEX_POINT ( 'NONE', #30 ) ;
#224 = ORIENTED_EDGE ( 'NONE', *, *, #181, .T. ) ;
#225 = PERSON_AND_ORGANIZATION ( #140, #86 ) ;
#226 = APPROVAL_DATE_TIME ( #206, #60 ) ;
#227 = CC_DESIGN_PERSON_AND_ORGANIZATION_ASSIGNMENT ( #183, #89, ( #131 ) ) ;
#228 = FACE_OUTER_BOUND ( 'NONE', #171, .T. ) ;
#229 = LINE ( 'NONE', #213, #26 ) ;
#230 = CARTESIAN_POINT ( 'NONE',  ( -1220.000000000000000, -6.000000000000000000, -609.9999999999998863 ) ) ;
#231 = APPLICATION_CONTEXT ( 'configuration controlled 3d designs of mechanical parts and assemblies' ) ;
#232 = LINE ( 'NONE', #202, #56 ) ;
#233 = CARTESIAN_POINT ( 'NONE',  ( -1220.000000000000000, 6.000000000000000000, -609.9999999999998863 ) ) ;
#234 = ADVANCED_BREP_SHAPE_REPRESENTATION ( 'PLYWOOD-12MM_REV_', ( #101, #118 ), #33 ) ;
#235 = EDGE_CURVE ( 'NONE', #57, #223, #218, .T. ) ;
#236 = DIRECTION ( 'NONE',  ( 1.000000000000000000, 0.000000000000000000, -0.000000000000000000 ) ) ;
#237 = DIRECTION ( 'NONE',  ( 1.000000000000000000, 0.000000000000000000, 0.000000000000000000 ) ) ;
ENDSEC;
END-ISO-10303-21;
