ISO-10303-21;
HEADER;
FILE_DESCRIPTION (( 'STEP AP203' ),
    '1' );
FILE_NAME ('PLYWOOD_REV_.step',
    '2025-08-17T04:46:43',
    ( '' ),
    ( '' ),
    'SwSTEP 2.0',
    'SolidWorks 2024',
    '' );
FILE_SCHEMA (( 'CONFIG_CONTROL_DESIGN' ));
ENDSEC;

DATA;
#1 = SECURITY_CLASSIFICATION_LEVEL ( 'unclassified' ) ;
#2 = DIRECTION ( 'NONE',  ( 1.000000000000000000, 0.000000000000000000, 0.000000000000000000 ) ) ;
#3 = ORIENTED_EDGE ( 'NONE', *, *, #107, .F. ) ;
#4 = EDGE_CURVE ( 'NONE', #171, #221, #206, .T. ) ;
#5 = ORIENTED_EDGE ( 'NONE', *, *, #176, .T. ) ;
#6 = DIRECTION ( 'NONE',  ( 0.000000000000000000, 0.000000000000000000, -1.000000000000000000 ) ) ;
#7 = DIRECTION ( 'NONE',  ( -0.000000000000000000, 1.000000000000000000, -0.000000000000000000 ) ) ;
#8 = CARTESIAN_POINT ( 'NONE',  ( -1155.000000000000227, 6.000000000000000000, 520.4999999999998863 ) ) ;
#9 = VECTOR ( 'NONE', #226, 1000.000000000000000 ) ;
#10 = CARTESIAN_POINT ( 'NONE',  ( 1154.999999999999773, -6.000000000000000000, 520.4999999999998863 ) ) ;
#11 = CARTESIAN_POINT ( 'NONE',  ( 1154.999999999999773, 6.000000000000000000, 520.4999999999998863 ) ) ;
#12 = ADVANCED_FACE ( 'NONE', ( #91 ), #39, .F. ) ;
#13 = APPROVAL_DATE_TIME ( #180, #214 ) ;
#14 = COORDINATED_UNIVERSAL_TIME_OFFSET ( 10, 0, .AHEAD. ) ;
#15 = ORIENTED_EDGE ( 'NONE', *, *, #111, .F. ) ;
#16 = COORDINATED_UNIVERSAL_TIME_OFFSET ( 10, 0, .AHEAD. ) ;
#17 = ORIENTED_EDGE ( 'NONE', *, *, #120, .T. ) ;
#18 = AXIS2_PLACEMENT_3D ( 'NONE', #225, #45, #194 ) ;
#19 = ORIENTED_EDGE ( 'NONE', *, *, #191, .T. ) ;
#20 = CC_DESIGN_PERSON_AND_ORGANIZATION_ASSIGNMENT ( #216, #94, ( #36 ) ) ;
#21 = ORIENTED_EDGE ( 'NONE', *, *, #107, .T. ) ;
#22 = VECTOR ( 'NONE', #189, 1000.000000000000000 ) ;
#23 = FACE_OUTER_BOUND ( 'NONE', #181, .T. ) ;
#24 = DIRECTION ( 'NONE',  ( -1.000000000000000000, 0.000000000000000000, -0.000000000000000000 ) ) ;
#25 = LINE ( 'NONE', #172, #124 ) ;
#26 = AXIS2_PLACEMENT_3D ( 'NONE', #102, #80, #6 ) ;
#27 = CARTESIAN_POINT ( 'NONE',  ( -1155.000000000000227, -6.000000000000000000, -520.5000000000001137 ) ) ;
#28 = MECHANICAL_CONTEXT ( 'NONE', #106, 'mechanical' ) ;
#29 = DATE_TIME_ROLE ( 'classification_date' ) ;
#30 = CC_DESIGN_APPROVAL ( #100, ( #140 ) ) ;
#31 = PERSON_AND_ORGANIZATION ( #141, #162 ) ;
#32 = APPLICATION_PROTOCOL_DEFINITION ( 'international standard', 'config_control_design', 1994, #106 ) ;
#33 = ORIENTED_EDGE ( 'NONE', *, *, #196, .F. ) ;
#34 = PERSON_AND_ORGANIZATION_ROLE ( 'creator' ) ;
#35 = EDGE_LOOP ( 'NONE', ( #3, #5, #59, #137 ) ) ;
#36 = PRODUCT_DEFINITION_FORMATION_WITH_SPECIFIED_SOURCE ( 'ANY', '', #205, .NOT_KNOWN. ) ;
#37 = CC_DESIGN_DATE_AND_TIME_ASSIGNMENT ( #126, #29, ( #157 ) ) ;
#38 = ORIENTED_EDGE ( 'NONE', *, *, #229, .F. ) ;
#39 = PLANE ( 'NONE',  #197 ) ;
#40 = ORIENTED_EDGE ( 'NONE', *, *, #229, .T. ) ;
#41 = EDGE_CURVE ( 'NONE', #219, #51, #233, .T. ) ;
#42 = CARTESIAN_POINT ( 'NONE',  ( -1155.000000000000227, 6.000000000000000000, 520.4999999999998863 ) ) ;
#43 = CC_DESIGN_SECURITY_CLASSIFICATION ( #157, ( #36 ) ) ;
#44 = ADVANCED_FACE ( 'NONE', ( #218 ), #151, .T. ) ;
#45 = DIRECTION ( 'NONE',  ( -0.000000000000000000, 0.000000000000000000, 1.000000000000000000 ) ) ;
#46 = LINE ( 'NONE', #177, #153 ) ;
#47 = DIRECTION ( 'NONE',  ( -1.000000000000000000, -0.000000000000000000, -0.000000000000000000 ) ) ;
#48 = CARTESIAN_POINT ( 'NONE',  ( 0.000000000000000000, 0.000000000000000000, 0.000000000000000000 ) ) ;
#49 = PERSON_AND_ORGANIZATION ( #141, #162 ) ;
#50 = LOCAL_TIME ( 14, 46, 43.00000000000000000, #215 ) ;
#51 = VERTEX_POINT ( 'NONE', #220 ) ;
#52 = CARTESIAN_POINT ( 'NONE',  ( -1155.000000000000227, -6.000000000000000000, 520.4999999999998863 ) ) ;
#53 = VERTEX_POINT ( 'NONE', #168 ) ;
#54 = LOCAL_TIME ( 14, 46, 43.00000000000000000, #125 ) ;
#55 = AXIS2_PLACEMENT_3D ( 'NONE', #48, #76, #166 ) ;
#56 = PRODUCT_DEFINITION_SHAPE ( 'NONE', 'NONE',  #140 ) ;
#57 = VERTEX_POINT ( 'NONE', #75 ) ;
#58 = CC_DESIGN_PERSON_AND_ORGANIZATION_ASSIGNMENT ( #70, #231, ( #205 ) ) ;
#59 = ORIENTED_EDGE ( 'NONE', *, *, #196, .T. ) ;
#60 = FACE_OUTER_BOUND ( 'NONE', #35, .T. ) ;
#61 = APPROVAL ( #110, 'UNSPECIFIED' ) ;
#62 = CARTESIAN_POINT ( 'NONE',  ( 1154.999999999999773, -6.000000000000000000, -520.5000000000001137 ) ) ;
#63 = APPROVAL_PERSON_ORGANIZATION ( #132, #100, #148 ) ;
#64 = DIRECTION ( 'NONE',  ( -0.000000000000000000, -0.000000000000000000, 1.000000000000000000 ) ) ;
#65 = CC_DESIGN_PERSON_AND_ORGANIZATION_ASSIGNMENT ( #49, #130, ( #157 ) ) ;
#66 = DIRECTION ( 'NONE',  ( -1.000000000000000000, 0.000000000000000000, -0.000000000000000000 ) ) ;
#67 = DIRECTION ( 'NONE',  ( 0.000000000000000000, 0.000000000000000000, -1.000000000000000000 ) ) ;
#68 = LOCAL_TIME ( 14, 46, 43.00000000000000000, #16 ) ;
#69 = CALENDAR_DATE ( 2025, 17, 8 ) ;
#70 = PERSON_AND_ORGANIZATION ( #141, #162 ) ;
#71 = CALENDAR_DATE ( 2025, 17, 8 ) ;
#72 = DIRECTION ( 'NONE',  ( 0.000000000000000000, 0.000000000000000000, -1.000000000000000000 ) ) ;
#73 = DATE_AND_TIME ( #69, #68 ) ;
#74 = EDGE_CURVE ( 'NONE', #171, #53, #202, .T. ) ;
#75 = CARTESIAN_POINT ( 'NONE',  ( -1155.000000000000227, 6.000000000000000000, -520.5000000000001137 ) ) ;
#76 = DIRECTION ( 'NONE',  ( 0.000000000000000000, 0.000000000000000000, 1.000000000000000000 ) ) ;
#77 = ORIENTED_EDGE ( 'NONE', *, *, #4, .T. ) ;
#78 = EDGE_LOOP ( 'NONE', ( #131, #199, #40, #96 ) ) ;
#79 = ORIENTED_EDGE ( 'NONE', *, *, #4, .F. ) ;
#80 = DIRECTION ( 'NONE',  ( 1.000000000000000000, 0.000000000000000000, 0.000000000000000000 ) ) ;
#81 = VECTOR ( 'NONE', #72, 1000.000000000000000 ) ;
#82 = ADVANCED_FACE ( 'NONE', ( #23 ), #161, .T. ) ;
#83 = LINE ( 'NONE', #8, #9 ) ;
#84 = PLANE ( 'NONE',  #26 ) ;
#85 = VECTOR ( 'NONE', #87, 1000.000000000000000 ) ;
#86 = UNCERTAINTY_MEASURE_WITH_UNIT (LENGTH_MEASURE( 1.000000000000000082E-05 ), #213, 'distance_accuracy_value', 'NONE');
#87 = DIRECTION ( 'NONE',  ( 1.000000000000000000, 0.000000000000000000, 0.000000000000000000 ) ) ;
#88 = CARTESIAN_POINT ( 'NONE',  ( 1154.999999999999773, -6.000000000000000000, 520.4999999999998863 ) ) ;
#89 = APPROVAL_STATUS ( 'not_yet_approved' ) ;
#90 = APPROVAL_ROLE ( '' ) ;
#91 = FACE_OUTER_BOUND ( 'NONE', #78, .T. ) ;
#92 = PERSON_AND_ORGANIZATION ( #141, #162 ) ;
#93 = ORIENTED_EDGE ( 'NONE', *, *, #74, .F. ) ;
#94 = PERSON_AND_ORGANIZATION_ROLE ( 'creator' ) ;
#95 = DIRECTION ( 'NONE',  ( -0.000000000000000000, 1.000000000000000000, -0.000000000000000000 ) ) ;
#96 = ORIENTED_EDGE ( 'NONE', *, *, #193, .T. ) ;
#97 = PRODUCT_RELATED_PRODUCT_CATEGORY ( 'detail', '', ( #205 ) ) ;
#98 = CARTESIAN_POINT ( 'NONE',  ( 1154.999999999999773, 6.000000000000000000, 520.4999999999998863 ) ) ;
#99 = LINE ( 'NONE', #190, #22 ) ;
#100 = APPROVAL ( #89, 'UNSPECIFIED' ) ;
#101 = DESIGN_CONTEXT ( 'detailed design', #136, 'design' ) ;
#102 = CARTESIAN_POINT ( 'NONE',  ( 1154.999999999999773, -6.000000000000000000, 520.4999999999998863 ) ) ;
#103 = VECTOR ( 'NONE', #119, 1000.000000000000000 ) ;
#104 = LINE ( 'NONE', #227, #115 ) ;
#105 = PERSON_AND_ORGANIZATION ( #141, #162 ) ;
#106 = APPLICATION_CONTEXT ( 'configuration controlled 3d designs of mechanical parts and assemblies' ) ;
#107 = EDGE_CURVE ( 'NONE', #221, #219, #25, .T. ) ;
#108 = COORDINATED_UNIVERSAL_TIME_OFFSET ( 10, 0, .AHEAD. ) ;
#109 = VECTOR ( 'NONE', #211, 1000.000000000000000 ) ;
#110 = APPROVAL_STATUS ( 'not_yet_approved' ) ;
#111 = EDGE_CURVE ( 'NONE', #133, #186, #99, .T. ) ;
#112 = DATE_AND_TIME ( #127, #175 ) ;
#113 = CARTESIAN_POINT ( 'NONE',  ( 0.000000000000000000, -6.000000000000000000, 0.000000000000000000 ) ) ;
#114 = APPROVAL_ROLE ( '' ) ;
#115 = VECTOR ( 'NONE', #64, 1000.000000000000000 ) ;
#116 = EDGE_LOOP ( 'NONE', ( #15, #237, #79, #207 ) ) ;
#117 = CARTESIAN_POINT ( 'NONE',  ( 0.000000000000000000, 6.000000000000000000, 0.000000000000000000 ) ) ;
#118 = VECTOR ( 'NONE', #67, 1000.000000000000000 ) ;
#119 = DIRECTION ( 'NONE',  ( -0.000000000000000000, 1.000000000000000000, -0.000000000000000000 ) ) ;
#120 = EDGE_CURVE ( 'NONE', #186, #57, #144, .T. ) ;
#121 = CARTESIAN_POINT ( 'NONE',  ( -1155.000000000000227, -6.000000000000000000, -520.5000000000001137 ) ) ;
#122 = FACE_OUTER_BOUND ( 'NONE', #170, .T. ) ;
#123 = PLANE ( 'NONE',  #146 ) ;
#124 = VECTOR ( 'NONE', #7, 1000.000000000000000 ) ;
#125 = COORDINATED_UNIVERSAL_TIME_OFFSET ( 10, 0, .AHEAD. ) ;
#126 = DATE_AND_TIME ( #163, #50 ) ;
#127 = CALENDAR_DATE ( 2025, 17, 8 ) ;
#128 = CC_DESIGN_APPROVAL ( #61, ( #36 ) ) ;
#129 = ADVANCED_FACE ( 'NONE', ( #60 ), #84, .T. ) ;
#130 = PERSON_AND_ORGANIZATION_ROLE ( 'classification_officer' ) ;
#131 = ORIENTED_EDGE ( 'NONE', *, *, #41, .T. ) ;
#132 = PERSON_AND_ORGANIZATION ( #141, #162 ) ;
#133 = VERTEX_POINT ( 'NONE', #62 ) ;
#134 = ORIENTED_EDGE ( 'NONE', *, *, #193, .F. ) ;
#135 = VECTOR ( 'NONE', #95, 1000.000000000000000 ) ;
#136 = APPLICATION_CONTEXT ( 'configuration controlled 3d designs of mechanical parts and assemblies' ) ;
#137 = ORIENTED_EDGE ( 'NONE', *, *, #41, .F. ) ;
#138 = EDGE_LOOP ( 'NONE', ( #33, #154, #17, #155 ) ) ;
#139 = CARTESIAN_POINT ( 'NONE',  ( -1155.000000000000227, -6.000000000000000000, 520.4999999999998863 ) ) ;
#140 = PRODUCT_DEFINITION ( 'UNKNOWN', '', #36, #101 ) ;
#141 = PERSON ( 'UNSPECIFIED', 'UNSPECIFIED', 'UNSPECIFIED', ('UNSPECIFIED'), ('UNSPECIFIED'), ('UNSPECIFIED') ) ;
#142 = ADVANCED_FACE ( 'NONE', ( #122 ), #156, .T. ) ;
#143 =( NAMED_UNIT ( * ) PLANE_ANGLE_UNIT ( ) SI_UNIT ( $, .RADIAN. ) );
#144 = LINE ( 'NONE', #121, #109 ) ;
#145 = FACE_OUTER_BOUND ( 'NONE', #138, .T. ) ;
#146 = AXIS2_PLACEMENT_3D ( 'NONE', #174, #159, #66 ) ;
#147 = APPLICATION_PROTOCOL_DEFINITION ( 'international standard', 'config_control_design', 1994, #136 ) ;
#148 = APPROVAL_ROLE ( '' ) ;
#149 = ORIENTED_EDGE ( 'NONE', *, *, #120, .F. ) ;
#150 = CARTESIAN_POINT ( 'NONE',  ( -1155.000000000000227, -6.000000000000000000, 520.4999999999998863 ) ) ;
#151 = PLANE ( 'NONE',  #212 ) ;
#152 = EDGE_CURVE ( 'NONE', #51, #57, #46, .T. ) ;
#153 = VECTOR ( 'NONE', #47, 1000.000000000000000 ) ;
#154 = ORIENTED_EDGE ( 'NONE', *, *, #111, .T. ) ;
#155 = ORIENTED_EDGE ( 'NONE', *, *, #152, .F. ) ;
#156 = PLANE ( 'NONE',  #158 ) ;
#157 = SECURITY_CLASSIFICATION ( '', '', #1 ) ;
#158 = AXIS2_PLACEMENT_3D ( 'NONE', #139, #24, #160 ) ;
#159 = DIRECTION ( 'NONE',  ( 0.000000000000000000, 0.000000000000000000, -1.000000000000000000 ) ) ;
#160 = DIRECTION ( 'NONE',  ( -0.000000000000000000, 0.000000000000000000, 1.000000000000000000 ) ) ;
#161 = PLANE ( 'NONE',  #18 ) ;
#162 = ORGANIZATION ( 'UNSPECIFIED', 'UNSPECIFIED', '' ) ;
#163 = CALENDAR_DATE ( 2025, 17, 8 ) ;
#164 = CALENDAR_DATE ( 2025, 17, 8 ) ;
#165 = DIRECTION ( 'NONE',  ( 0.000000000000000000, -1.000000000000000000, 0.000000000000000000 ) ) ;
#166 = DIRECTION ( 'NONE',  ( 1.000000000000000000, 0.000000000000000000, 0.000000000000000000 ) ) ;
#167 = APPROVAL_PERSON_ORGANIZATION ( #201, #61, #90 ) ;
#168 = CARTESIAN_POINT ( 'NONE',  ( -1155.000000000000227, 6.000000000000000000, 520.4999999999998863 ) ) ;
#169 = CC_DESIGN_PERSON_AND_ORGANIZATION_ASSIGNMENT ( #92, #34, ( #140 ) ) ;
#170 = EDGE_LOOP ( 'NONE', ( #149, #19, #222, #38 ) ) ;
#171 = VERTEX_POINT ( 'NONE', #223 ) ;
#172 = CARTESIAN_POINT ( 'NONE',  ( 1154.999999999999773, -6.000000000000000000, 520.4999999999998863 ) ) ;
#173 = LINE ( 'NONE', #42, #85 ) ;
#174 = CARTESIAN_POINT ( 'NONE',  ( -1155.000000000000227, -6.000000000000000000, -520.5000000000001137 ) ) ;
#175 = LOCAL_TIME ( 14, 46, 43.00000000000000000, #14 ) ;
#176 = EDGE_CURVE ( 'NONE', #221, #133, #208, .T. ) ;
#177 = CARTESIAN_POINT ( 'NONE',  ( -1155.000000000000227, 6.000000000000000000, -520.5000000000001137 ) ) ;
#178 = CARTESIAN_POINT ( 'NONE',  ( 1154.999999999999773, -6.000000000000000000, -520.5000000000001137 ) ) ;
#179 = APPROVAL_DATE_TIME ( #73, #61 ) ;
#180 = DATE_AND_TIME ( #71, #230 ) ;
#181 = EDGE_LOOP ( 'NONE', ( #93, #77, #21, #134 ) ) ;
#182 = APPROVAL_DATE_TIME ( #112, #100 ) ;
#183 = DIRECTION ( 'NONE',  ( 0.000000000000000000, -1.000000000000000000, 0.000000000000000000 ) ) ;
#184 = SHAPE_DEFINITION_REPRESENTATION ( #56, #236 ) ;
#185 = CLOSED_SHELL ( 'NONE', ( #44, #129, #82, #142, #209, #12 ) ) ;
#186 = VERTEX_POINT ( 'NONE', #27 ) ;
#187 = DIRECTION ( 'NONE',  ( 0.000000000000000000, -0.000000000000000000, -1.000000000000000000 ) ) ;
#188 = VECTOR ( 'NONE', #2, 1000.000000000000000 ) ;
#189 = DIRECTION ( 'NONE',  ( -1.000000000000000000, -0.000000000000000000, -0.000000000000000000 ) ) ;
#190 = CARTESIAN_POINT ( 'NONE',  ( -1155.000000000000227, -6.000000000000000000, -520.5000000000001137 ) ) ;
#191 = EDGE_CURVE ( 'NONE', #186, #171, #104, .T. ) ;
#192 =( NAMED_UNIT ( * ) SI_UNIT ( $, .STERADIAN. ) SOLID_ANGLE_UNIT ( ) );
#193 = EDGE_CURVE ( 'NONE', #53, #219, #173, .T. ) ;
#194 = DIRECTION ( 'NONE',  ( 1.000000000000000000, 0.000000000000000000, 0.000000000000000000 ) ) ;
#195 = DATE_TIME_ROLE ( 'creation_date' ) ;
#196 = EDGE_CURVE ( 'NONE', #133, #51, #228, .T. ) ;
#197 = AXIS2_PLACEMENT_3D ( 'NONE', #117, #165, #187 ) ;
#198 = PERSON_AND_ORGANIZATION_ROLE ( 'design_supplier' ) ;
#199 = ORIENTED_EDGE ( 'NONE', *, *, #152, .T. ) ;
#200 = CC_DESIGN_PERSON_AND_ORGANIZATION_ASSIGNMENT ( #105, #198, ( #36 ) ) ;
#201 = PERSON_AND_ORGANIZATION ( #141, #162 ) ;
#202 = LINE ( 'NONE', #150, #135 ) ;
#203 = APPROVAL_PERSON_ORGANIZATION ( #31, #214, #114 ) ;
#204 = DIRECTION ( 'NONE',  ( 0.000000000000000000, -0.000000000000000000, -1.000000000000000000 ) ) ;
#205 = PRODUCT ( 'PLYWOOD_REV_', 'PLYWOOD_REV_', '', ( #28 ) ) ;
#206 = LINE ( 'NONE', #52, #188 ) ;
#207 = ORIENTED_EDGE ( 'NONE', *, *, #191, .F. ) ;
#208 = LINE ( 'NONE', #10, #118 ) ;
#209 = ADVANCED_FACE ( 'NONE', ( #145 ), #123, .T. ) ;
#210 = MANIFOLD_SOLID_BREP ( 'Cut-Extrude1', #185 ) ;
#211 = DIRECTION ( 'NONE',  ( -0.000000000000000000, 1.000000000000000000, -0.000000000000000000 ) ) ;
#212 = AXIS2_PLACEMENT_3D ( 'NONE', #113, #183, #204 ) ;
#213 =( LENGTH_UNIT ( ) NAMED_UNIT ( * ) SI_UNIT ( .MILLI., .METRE. ) );
#214 = APPROVAL ( #232, 'UNSPECIFIED' ) ;
#215 = COORDINATED_UNIVERSAL_TIME_OFFSET ( 10, 0, .AHEAD. ) ;
#216 = PERSON_AND_ORGANIZATION ( #141, #162 ) ;
#217 = CC_DESIGN_APPROVAL ( #214, ( #157 ) ) ;
#218 = FACE_OUTER_BOUND ( 'NONE', #116, .T. ) ;
#219 = VERTEX_POINT ( 'NONE', #11 ) ;
#220 = CARTESIAN_POINT ( 'NONE',  ( 1154.999999999999773, 6.000000000000000000, -520.5000000000001137 ) ) ;
#221 = VERTEX_POINT ( 'NONE', #88 ) ;
#222 = ORIENTED_EDGE ( 'NONE', *, *, #74, .T. ) ;
#223 = CARTESIAN_POINT ( 'NONE',  ( -1155.000000000000227, -6.000000000000000000, 520.4999999999998863 ) ) ;
#224 = CC_DESIGN_DATE_AND_TIME_ASSIGNMENT ( #235, #195, ( #140 ) ) ;
#225 = CARTESIAN_POINT ( 'NONE',  ( -1155.000000000000227, -6.000000000000000000, 520.4999999999998863 ) ) ;
#226 = DIRECTION ( 'NONE',  ( -0.000000000000000000, -0.000000000000000000, 1.000000000000000000 ) ) ;
#227 = CARTESIAN_POINT ( 'NONE',  ( -1155.000000000000227, -6.000000000000000000, 520.4999999999998863 ) ) ;
#228 = LINE ( 'NONE', #178, #103 ) ;
#229 = EDGE_CURVE ( 'NONE', #57, #53, #83, .T. ) ;
#230 = LOCAL_TIME ( 14, 46, 43.00000000000000000, #108 ) ;
#231 = PERSON_AND_ORGANIZATION_ROLE ( 'design_owner' ) ;
#232 = APPROVAL_STATUS ( 'not_yet_approved' ) ;
#233 = LINE ( 'NONE', #98, #81 ) ;
#234 =( GEOMETRIC_REPRESENTATION_CONTEXT ( 3 ) GLOBAL_UNCERTAINTY_ASSIGNED_CONTEXT ( ( #86 ) ) GLOBAL_UNIT_ASSIGNED_CONTEXT ( ( #213, #143, #192 ) ) REPRESENTATION_CONTEXT ( 'NONE', 'WORKASPACE' ) );
#235 = DATE_AND_TIME ( #164, #54 ) ;
#236 = ADVANCED_BREP_SHAPE_REPRESENTATION ( 'PLYWOOD_REV_', ( #210, #55 ), #234 ) ;
#237 = ORIENTED_EDGE ( 'NONE', *, *, #176, .F. ) ;
ENDSEC;
END-ISO-10303-21;
